Song name
# A B C D E F G H I J K L M N O P Q R S T U V W X Y Z

Billy Talent - Definition Of Destiny tab

-------------------------------------------------------------------------------
		    Definition Of Destiny - Billy Talent
-------------------------------------------------------------------------------
Tabbed by:PT-E
Email:

Tuning: Drop D

 Intro 2x
e|-----------------------------------------------------------------------------------|
B|-----------------------------------------------------------------------------------|
G|---------9-----9---------7-----7/10-------------10------10-------------9------9----|
D|-----7-----7---------7-----7---------------8-------8--------------8------8---------|
A|-5-5---5-----5----5-5--5-----5-------10-10---10------10-----10-10---10-----10------|
D|-----------------------------------------------------------------------------------|

e|-------------------------------------------------------------------------|---------|
B|-------------------------------------------------------------------------|---------|
G|---------9-----9----------7-----7----------7-----7----------6-----6------|---6-----|
D|-----7-----7----------7-----7----------5-----5----------5-----5----------|---5-----|
A|-8-8---8-----8----8-8---8-----8----0-0---0-----0----0-0---0-----0--------|---0-----|
D|-------------------------------------------------------------------------|---------|

  4x
e|---------------------------------------------------------------------------|
B|---------------------------------------------------------------------------|
G|---------------------------------------------------------------------------|
D|--------------------------------10\-7--------------------------------------|
A|-0--0--3/7--0--5/8--0--7/10--0--8-\-5--------------------------------------|
D|-0--0--3/7--0--5/8--0--7/10--0---------------------------------------------|


 verse 2x
e|---------------------------------------------------------------------------|
B|---------------------------------------------------------------------------|
G|---------5-----5----------5-----5----------5-----5-----------5-----5-------|
D|-----3-----3----------2-----2----------2-----2----------3------3-----------|
A|-5-5---5-----5----3-3---3-----3----0-0---0-----0----1-1---1------1---------|
D|---------------------------------------------------------------------------|

e|----------------------------------------------------------------------------|
B|----------------------------------------------------------------------------|
G|------------10------10----------10-----10----------7-----7----------6-----6-|
D|-------8-------8------------7------8-----------5-----5----------5-----5-----|
A|-10-10---10------10-----8-8---8------7-----0-0---0-----0----0-0---0-----0---|
D|----------------------------------------------------------------------------|


 Pre-Chorus 2X
e|---------------------------------------------------------------------------|
B|---------------------------------------------------------------------------|
G|---------------------------------------------------------------------------|
D|-2-2-2-2-0-2-3-3-3-3-0-3-3-3-3---------------------------------------------|
A|-0-0-0-0-0-0-1-1-1-1-0-1-1-1-1-0-0-0-0-0-----------------------------------|
D|-------------------------------0-0-0-0-0-----------------------------------|


 Chorus 2x
e|---------------------------------------------------------------------------|
B|---------------------------------------------------------------------------|
G|-2-2-2-2-2-2-2-------------------------------------------------------------|
D|-2-2-2-2-2-2-2-3-3-3-3-3-3-3-3--8-8-8-8-8-8-8--0-0-0-0-0-0-0-0-------------|
A|-0-0-0-0-0-0-0-3-3-3-3-3-3-3-3--8-8-8-8-8-8-8--0-0-0-0-0-0-0-0-------------|
D|---------------3-3-3-3-3-3-3-3--8-8-8-8-8-8-8--0-0-0-0-0-0-0-0-------------|


  4x
e|---------------------------------------------------------------------------|
B|---------------------------------------------------------------------------|
G|---------------------------------------------------------------------------|
D|--------------------------------10\-7--------------------------------------|
A|-0--0--3/7--0--5/8--0--7/10--0--8-\-5--------------------------------------|
D|-0--0--3/7--0--5/8--0--7/10--0---------------------------------------------|


 verse 2x
e|---------------------------------------------------------------------------|
B|---------------------------------------------------------------------------|
G|---------5-----5----------5-----5----------5-----5-----------5-----5-------|
D|-----3-----3----------2-----2----------2-----2----------3------3-----------|
A|-5-5---5-----5----3-3---3-----3----0-0---0-----0----1-1---1------1---------|
D|---------------------------------------------------------------------------|

e|----------------------------------------------------------------------------|
B|----------------------------------------------------------------------------|
G|------------10------10----------10-----10----------7-----7----------6-----6-|
D|-------8-------8------------7------8-----------5-----5----------5-----5-----|
A|-10-10---10------10-----8-8---8------7-----0-0---0-----0----0-0---0-----0---|
D|----------------------------------------------------------------------------|


 Pre-Chorus 2X
e|---------------------------------------------------------------------------|
B|---------------------------------------------------------------------------|
G|---------------------------------------------------------------------------|
D|-2-2-2-2-0-2-3-3-3-3-0-3-3-3-3---------------------------------------------|
A|-0-0-0-0-0-0-1-1-1-1-0-1-1-1-1-0-0-0-0-0-----------------------------------|
D|-------------------------------0-0-0-0-0-----------------------------------|

Chorus 3x
e|---------------------------------------------------------------------------|
B|---------------------------------------------------------------------------|
G|-2-2-2-2-2-2-2-------------------------------------------------------------|
D|-2-2-2-2-2-2-2-3-3-3-3-3-3-3-3--8-8-8-8-8-8-8--0-0-0-0-0-0-0-0-------------|
A|-0-0-0-0-0-0-0-3-3-3-3-3-3-3-3--8-8-8-8-8-8-8--0-0-0-0-0-0-0-0-------------|
D|---------------3-3-3-3-3-3-3-3--8-8-8-8-8-8-8--0-0-0-0-0-0-0-0-------------|

    chorus continues
e|---------------------------------------------------------------------------|
B|---------------------------------------------------------------------------|
G|-2-2-2-2-2-2-2-------------------------------------------------------------|
D|-2-2-2-2-2-2-2-3-3-3-3-3-3-3-3--8-8-8-8-8-8-8-8-8-8-8-8-8-8-8-8------------|
A|-0-0-0-0-0-0-0-3-3-3-3-3-3-3-3--8-8-8-8-8-8-8-8-8-8-8-8-8-8-8-8------------|
D|---------------3-3-3-3-3-3-3-3--8-8-8-8-8-8-8-8-8-8-8-8-8-8-8-8------------|


  4X
e|---------------------------------------------------------------------------|
B|-3-3-3--3-3-3--2-2-2--2-2-2------------------------------------------------|
G|-2-2-2--2-2-2--2-2-2--2-2-2--9-9-9--9-9-9--7-7-7--7-7-7--------------------|
D|-----------------------------0-0-0--0-0-0--0-0-0--0-0-0--------------------|
A|---------------------------------------------------------------------------|
D|---------------------------------------------------------------------------|

e|---------------------------------------------------------------------------|
B|-6-6-6--6-6-6--5-5-5--5-5-5--5-5-5--5-5-5--3-3-3--3-3-3--------------------|
G|-0-0-0--0-0-0--0-0-0--0-0-0------------------------------------------------|
D|-----------------------------3-3-3--3-3-3--3-3-3--3-3-3--------------------|
A|---------------------------------------------------------------------------|
D|---------------------------------------------------------------------------|


Pre-Chorus 2X
e|---------------------------------------------------------------------------|
B|---------------------------------------------------------------------------|
G|---------------------------------------------------------------------------|
D|-2-2-2-2-0-2-3-3-3-3-0-3-3-3-3---------------------------------------------|
A|-0-0-0-0-0-0-1-1-1-1-0-1-1-1-1-0-0-0-0-0-----------------------------------|
D|-------------------------------0-0-0-0-0-----------------------------------|

Chorus 4x
e|---------------------------------------------------------------------------|
B|---------------------------------------------------------------------------|
G|-2-2-2-2-2-2-2-------------------------------------------------------------|
D|-2-2-2-2-2-2-2-3-3-3-3-3-3-3-3--8-8-8-8-8-8-8--0-0-0-0-0-0-0-0-------------|
A|-0-0-0-0-0-0-0-3-3-3-3-3-3-3-3--8-8-8-8-8-8-8--0-0-0-0-0-0-0-0-------------|
D|---------------3-3-3-3-3-3-3-3--8-8-8-8-8-8-8--0-0-0-0-0-0-0-0-------------|

  4x
e|---------------------------------------------------------------------------|
B|---------------------------------------------------------------------------|
G|---------------------------------------------------------------------------|
D|--------------------------------10\-7--------------------------------------|
A|-0--0--3/7--0--5/8--0--7/10--0--8-\-5--------------------------------------|
D|-0--0--3/7--0--5/8--0--7/10--0---------------------------------------------|



| /  slide up
| \  slide down
| h  hammer-on
| p  pull-off
| ~  vibrato
| +  harmonic
| x  Mute note
===============================================================================
Tap to rate this tab
# A B C D E F G H I J K L M N O P Q R S T U V W X Y Z