Guitaretab - guitar tabs
Song name
# A B C D E F G H I J K L M N O P Q R S T U V W X Y Z

Billy Talent - Saint Veronika tab

-------------------------------------------------------------------------------
			     Saint Veronika  Billy Talent
-------------------------------------------------------------------------------
Tabbed by:PT-E
Email:

Tuning:Drop D


 Intro 4x
e|---------------------------------------------------------------------------|
B|---------------------------------------------------------------------------|
G|---------------------------------------------------------------------------|
D|-----------------------------------------------------------7-----7---------|
A|---------5-----5---------5-----5---------10-----10-------------------------|
D|-0-0-0-0---0-0---3-3-3-3---3-3---8-8-8-8----8-8----5-5-5-5---5-5-----------|


 Verse 2x
e|---------------------------------------------------------------------------|
B|---------------------------------------------------------------------------|
G|---------------------------------------------------------------------------|
D|---------------------------------------------------------------------------|
A|---------------------------------------------------------------------------|
D|-0-0-0-0-0-0-0-0-0-0-0-0-3-3-5-5-7-7-7-7-7-7-7-7-7-7-7-5-5-5-5-5-5-5-5-5-5-|

e|----------------------------------|-------------|
B|----------------------------------|-------------|
G|----------------------------------|-------------|
D|----------------------------------|--7-7-7------|
A|----------------------------------|--7-7-7------|
D|-3-3-3-3-3-3-3-3-7-7-7-7-7-7-7-7--|--7-7-7------|


 Chorus 2x
e|---------------------------------------------------------------------------|
B|-3-3-3-3-3-3-3-3-5-5-5-5-6-6-6-6-------------------------------------------|
G|---------------------------------------------------------------------------|
D|-3-3-3-3-3-3-3-3-5-5-5-5-5-5-5-5-8-8-8-8-8-8-8-8-7-7-7-7-7-7-7-7-----------|
A|-1-1-1-1-1-1-1-1-0-0-0-0-0-0-0-0-5-5-5-5-5-5-5-5-3-3-3-3-3-3-3-3-----------|
D|---------------------------------5-5-5-5-5-5-5-5-3-3-3-3-3-3-3-3-----------|

e|---------------------------------------------------101010------------------|
B|-2-2-2-2-2-2-2-2-3-3-3-3-3-3-3-3--6--6--6--6--888--101010------------------|
G|-2-2-2-22-2-2-2-2-2-2-2-2-2-2-2--7--7--7--7--777--101010------------------|
D|-2-2-2-2-2-2-2-2-2-2-2-2-2-2-2-2--7--7--7--7--777--121212------------------|
A|-0-0-0-0-0-0-0-0-0-0-0-0-0-0-0-0--5--5--5--5--555--------------------------|
D|---------------------------------------------------------------------------|



e|---------------------------------------------------------------------------|
B|---------------------------------------------------------------------------|
G|---------------------------------------------------------------------------|
D|-----------------------------------------------------------7-----7---------|
A|---------5-----5---------5-----5---------10-----10-------------------------|
D|-0-0-0-0---0-0---3-3-3-3---3-3---8-8-8-8----8-8----5-5-5-5---5-5-----------|



Verse 4x
e|---------------------------------------------------------------------------|
B|---------------------------------------------------------------------------|
G|---------------------------------------------------------------------------|
D|---------------------------------------------------------------------------|
A|---------------------------------------------------------------------------|
D|-0-0-0-0-0-0-0-0-0-0-0-0-3-3-5-5-7-7-7-7-7-7-7-7-7-7-7-5-5-5-5-5-5-5-5-5-5-|

e|----------------------------------|-------------|
B|----------------------------------|-------------|
G|----------------------------------|-------------|
D|----------------------------------|--7-7-7------|
A|----------------------------------|--7-7-7------|
D|-3-3-3-3-3-3-3-3-7-7-7-7-7-7-7-7--|--7-7-7------|

 Chorus
e|---------------------------------------------------------------------------|
B|-3-3-3-3-3-3-3-3-5-5-5-5-6-6-6-6-------------------------------------------|
G|---------------------------------------------------------------------------|
D|-3-3-3-3-3-3-3-3-5-5-5-5-5-5-5-5-8-8-8-8-8-8-8-8-7-7-7-7-7-7-7-7-----------|
A|-1-1-1-1-1-1-1-1-0-0-0-0-0-0-0-0-5-5-5-5-5-5-5-5-3-3-3-3-3-3-3-3-----------|
D|---------------------------------5-5-5-5-5-5-5-5-3-3-3-3-3-3-3-3-----------|

e|---------------------------------------------------101010------------------|
B|-2-2-2-2-2-2-2-2-3-3-3-3-3-3-3-3--6--6--6--6--888--101010------------------|
G|-2-2-2-22-2-2-2-2-2-2-2-2-2-2-2--7--7--7--7--777--101010------------------|
D|-2-2-2-2-2-2-2-2-2-2-2-2-2-2-2-2--7--7--7--7--777--121212------------------|
A|-0-0-0-0-0-0-0-0-0-0-0-0-0-0-0-0--5--5--5--5--555--------------------------|
D|---------------------------------------------------------------------------|

e|---------------------------------------------------------------------------|
B|-8-8-8-8-8-8-8-8-6-6-6-6-6-6-6-6-11-11-11-11-11-11-11-11-1010101010101010--|
G|-7-7-7-7-7-7-7-7-7-7-7-7-7-7-7-7-12-12-12-12-12-12-12-12-1010101010101010--|
D|-8-8-8-8-8-8-8-8-7-7-7-7-7-7-7-7-12-12-12-12-12-12-12-12-1010101010101010--|
A|-----------------5-5-5-5-5-5-5-5-10-10-10-10-10-10-10-10-8-8-8-8-8-8-8-8---|
D|---------------------------------------------------------------------------|

e|---------------------------------------------------------------------------|
B|-5-5-5-5-6-6-6-6-5-5-5-5-5-5-5-5--6--6--6--6--888--101010------------------|
G|-7-7-7-7-7-7-7-7-7-7-7-7-7-7-7-7--7--7--7--7--777--101010------------------|
D|-7-7-7-7-7-7-7-7-7-7-7-7-7-7-7-7--7--7--7--7--777--101010------------------|
A|-7-7-7-7-7-7-7-7-7-7-7-7-7-7-7-7--5--5--5--5--555--121212------------------|
D|---------------------------------------------------------------------------|

[ Tab from: http://www.guitaretab.com/b/billy-talent/188949.html ]
  2x
e|---------------------------------------------------------------------------|
B|---------------------------------------------------------------------------|
G|---------------------------------------------------------------------------|
D|-----------------------------------------------------5-7-5-----------------|
A|---------------------------------0-0-7p0-8p0-5p0-7p0-------8-7-8-----------|
D|-0-0-7p0-8p0-5p0-7p0-3p0-5-3-2-3-------------------------------------------|

e|---------------------------------------------------------------------------|
B|---------------------------------------------------------------------------|
G|---------------------------------------------------------------------------|
D|---------------------------------------------------------------------------|
A|-----7p0-8p0-5p0-7p0-3p0-1p0-----3-3-3-3-3-----2-2-2-----------------------|
D|-5-5-------------------------5h7-3-3-3-3-3-5p3-2-2-2-----------------------|



  2x
e|---------------------------------------------------------------------------|
B|---------------------------------------------------------------------------|
G|-------------2-------------------------------------------------------------|
D|-0-----------2------------8---7---5--5--5--3--3--3--2--2--2----------------|
A|-0-----------0------------8---8---5--5--5--3--3--3--2--2--2----------------|
D|-0------------------------8---7---5--5--5--3--3--3--2--2--2----------------|


  2x
e|---------------------------------------------------------------------------|
B|---------------------------------------------------------------------------|
G|----------------------------------2--2--2-2-2-2----------------------------|
D|----------------------------------2--2--2-2-2-2----------------------------|
A|----------------------------------0--0--0-0-0-0----------------------------|
D|-0-0-7p0-8p0-5p0-7p0-3p0-5-3-2-3-------------------------------------------|


e|---------------------------------------------------------------------------|
B|---------------------------------------------------------------------------|
G|---------------------------------------------------------------------------|
D|---------------------------------------------------------------------------|
A|-----7p0-8p0-5p0-7p0-3p0-1p0-----3-3-3-----2-2-2---------------------------|
D|-5-5-------------------------5h7-3-3-3-5p3-2-2-2---------------------------|



e|-----------------------------------------------------------------------------|
B|---------15---------15---------11--------10-------5-------5-------6---8---10-|
G|-------0----------0----------0---------0--------0-------0-------0-----6---7--|
D|----12---------12---------12--------10--------5-------5-------5-------5---7--|
A|-13---------12---------10---------8---------0-------4-------5----------------|
D|-----------------------------------------------------------------------------|


e|-----------------------------------------------------------------------------|
B|---------15---------15---------11--------10-------5-------5-6-6-6-888-101010-|
G|-------0----------0----------0---------0--------0-------0---7-7-7-777-101010-|
D|----12---------12---------12--------10--------5-------5-----7-7-7-777-101010-|
A|-13---------12---------10---------8---------0-------4-------5-5-5-555-121212-|
D|-----------------------------------------------------------------------------|



Chorus 2x
e|---------------------------------------------------------------------------|
B|-3-3-3-3-3-3-3-3-5-5-5-5-6-6-6-6-------------------------------------------|
G|---------------------------------------------------------------------------|
D|-3-3-3-3-3-3-3-3-5-5-5-5-5-5-5-5-8-8-8-8-8-8-8-8-7-7-7-7-7-7-7-7-----------|
A|-1-1-1-1-1-1-1-1-0-0-0-0-0-0-0-0-5-5-5-5-5-5-5-5-3-3-3-3-3-3-3-3-----------|
D|---------------------------------5-5-5-5-5-5-5-5-3-3-3-3-3-3-3-3-----------|

e|---------------------------------------------------101010------------------|
B|-2-2-2-2-2-2-2-2-3-3-3-3-3-3-3-3--6--6--6--6--888--101010------------------|
G|-2-2-2-22-2-2-2-2-2-2-2-2-2-2-2--7--7--7--7--777--101010------------------|
D|-2-2-2-2-2-2-2-2-2-2-2-2-2-2-2-2--7--7--7--7--777--121212------------------|
A|-0-0-0-0-0-0-0-0-0-0-0-0-0-0-0-0--5--5--5--5--555--------------------------|
D|---------------------------------------------------------------------------|

  2x
e|---------------------------------------------------------------------------|
B|-8-8-8-8-8-8-8-8-6-6-6-6-6-6-6-6-11-11-11-11-11-11-11-11-1010101010101010--|
G|-7-7-7-7-7-7-7-7-7-7-7-7-7-7-7-7-12-12-12-12-12-12-12-12-1010101010101010--|
D|-8-8-8-8-8-8-8-8-7-7-7-7-7-7-7-7-12-12-12-12-12-12-12-12-1010101010101010--|
A|-----------------5-5-5-5-5-5-5-5-10-10-10-10-10-10-10-10-8-8-8-8-8-8-8-8---|
D|---------------------------------------------------------------------------|

e|---------------------------------------------------------------------------|
B|-5-5-5-5-6-6-6-6-5-5-5-5-5-5-5-5--6--6--6--6--888--101010------------------|
G|-7-7-7-7-7-7-7-7-7-7-7-7-7-7-7-7--7--7--7--7--777--101010------------------|
D|-7-7-7-7-7-7-7-7-7-7-7-7-7-7-7-7--7--7--7--7--777--101010------------------|
A|-7-7-7-7-7-7-7-7-7-7-7-7-7-7-7-7--5--5--5--5--555--121212------------------|
D|---------------------------------------------------------------------------|


e|---------------------------------------------------------------------------|
B|---------------------------------------------------------------------------|
G|---------------------------------------------------------------------------|
D|-----------------------------------------------------------7-7-7-7---------|
A|---------5-----5---------5-----5---------10-----10-------------------------|
D|-0-0-0-0---0-0---3-3-3-3---3-3---8-8-8-8----8-8----5-5-5-5-----------------|



| /  slide up
| \  slide down
| h  hammer-on
| p  pull-off
| ~  vibrato
| +  harmonic
| x  Mute note
===============================================================================

Related for Saint Veronika tab