Song name
# A B C D E F G H I J K L M N O P Q R S T U V W X Y Z

Billy Talent - Diamond On A Landmine tab

Billy Talent - Diamond On A Landmine

Tuning: Droped D

Intro:

e|-----------------|-----------------|-----------------|-----------------|
b|-----------------|-----------------|-----------------|-----------------|
g|-6---6---4---4---|-2---2---1---1---|-----------------|-----------6-4---|
D|-----------------|-----------------|-6---6---7---7---|-6---4-6-7-----7-|
A|-----------------|---2---2---2---2-|-----------------|-----------------|
D|---0---0---0---0-|-----------------|---4---4---4---4-|---4-------------|

PM                                       . . . . . . .   . . . . 
e|-0---------------|-0---------------|-0---------------|-----------------|
b|-7---------------|-2---------------|-0---------------|-----------------|
g|-6---6---4---4---|-2---2---1---1---|-4---------------|-----------6-4---|
D|-4---------------|-0---------------|-6-6-6-6-7-7-7-7-|-6-6-4-6-7-4-4-7-|
A|-5---------------|-2-2---2---2---2-|-4-4-4-4-4-4-4-4-|-4-4-4-4-4-4-4-4-|
D|-0-0---0---0---0-|-----------------|-4-4-4-4-4-4-4-4-|-4-4-4-4-4-4-4-4-|


e|-0-0-0-0-0-0-0-0-|-0-0-0-0-0-0-0-0-|-0-0-0-0-0-0-0-0-|-0-0-0-0-0-0-0-0-|
b|-7-7-7-7-7-7-7-7-|-2-2-2-2-2-2-2-2-|-0-0-0-0-0-0-0-0-|-0-0-0-0-0-0-0-0-|
g|-6-6-6-6-4-4-4-4-|-2-2-2-2-1-1-1-1-|-4-4-4-4-4-4-4-4-|-4-4-4-4-4-6-4-4-|  2x
D|-4-4-4-4-4-4-4-4-|-0-0-0-0-0-0-0-0-|-6-6-6-6-7-7-7-7-|-6-6-4-6-7-4-4-7-|
A|-5-5-5-5-5-5-5-5-|-2-2-2-2-2-2-2-2-|-4-4-4-4-4-4-4-4-|-4-4-4-4-4-4-4-4-|
D|-0-0-0-0-0-0-0-0-|-----------------|-4-4-4-4-4-4-4-4-|-4-4-4-4-4-4-4-4-|

Verse:

e|-0---0---0---0---|-0---0---0---0---|-0---0---0---0---|-0---0---0---0---|
b|-7---7---7---7---|-2---2---2---2---|-0---0---0---0---|-0---0---0---0---|
g|-6---6---4---4---|-2---2---1---1---|-4---4---4---4---|-4---4---4---4---|  4x
D|-4---4---4---4---|-0---0---0---0---|-6---6---7---7---|-6---6---7---7---|
A|-5---5---5---5---|-2---2---2---2---|-4---4---4---4---|-4---4---4---4---|
D|-0---0---0---0---|-----------------|-4---4---4---4---|-4---4---4---4---|


e|-0---0---0---0---|-0---0---0---0---|-0---0---0---0---|-0---0-----------|
b|-7---7---7---7---|-2---2---2---2---|-0---0---0---0---|-0---0-----------|
g|-6---6---4---4---|-2---2---1---1---|-4---4---4---4---|-4---4-----6-4---|  
D|-4---4---4---4---|-0---0---0---0---|-6---6---7---7---|-6---6-4-7-4-4-7-|
A|-5---5---5---5---|-2---2---2---2---|-4---4---4---4---|-4---4-4-4-4-4-4-|
D|-0---0---0---0---|-----------------|-4---4---4---4---|-4---4-4-4-4-4-4-|

Pre-Chorus:

PM . . . . . . . .   . . . . .         . . . . . . . .   . . . . .
e|-----------------|-----------------|-----------------|-----------------|
b|-----------------|-----------------|-----------------|-----------------|
g|-----------------|-----------6-4---|-----------------|-----------6-4---|
D|-6-6-6-6-7-7-7-7-|-6-6-4-6-7-0-0-7-|-6-6-6-6-7-7-7-7-|-6-6-4-6-7-4-4-7-|
A|-0-0-0-0-0-0-0-0-|-0-0-0-0-0-0-0-0-|-4-4-4-4-4-4-4-4-|-4-4-4-4-4-4-4-4-|
D|-0-0-0-0-0-0-0-0-|-0-0-0-0-0-0-0-0-|-4-4-4-4-4-4-4-4-|-4-4-4-4-4-4-4-4-|


e|-----------------|---------------------|-----------------|-2-2-2-2-4-4-4-4-|
b|-----------------|---------------------|-3-3-3-3-5-5-5-5-|-3-3-3-3-3-3-3-3-|
g|-----------------|---------------------|-----------------|-----------------|
D|-6-6-6-6-7-7-7-7-|-9-9-9-9-11-11-11-11-|-4-4-4-4-4-4-4-4-|-4-4-4-4-4-4-4-4-|
A|-0-0-0-0-0-0-0-0-|-0-0-0-0-0--0--0--0--|-2-2-2-2-2-2-2-2-|-2-2-2-2-2-2-2-2-|
D|-----------------|---------------------|-----------------|-----------------|

Chorus:

e|-0-0-0-0-0-0-0-0-|-0-0-0-0-0-0-0-0-|-0-0-0-0-0-0-0-0-|-0-0-0-0-0-0-0-0-|
b|-7-7-7-7-7-7-7-7-|-2-2-2-2-2-2-2-2-|-0-0-0-0-0-0-0-0-|-0-0-0-0-0-0-0-0-|
g|-6-6-6-6-4-4-4-4-|-2-2-2-2-1-1-1-1-|-4-4-4-4-4-4-4-4-|-4-4-4-4-4-6-4-4-|  2x
D|-4-4-4-4-4-4-4-4-|-0-0-0-0-0-0-0-0-|-6-6-6-6-7-7-7-7-|-6-6-4-6-7-4-4-7-|
A|-5-5-5-5-5-5-5-5-|-2-2-2-2-2-2-2-2-|-4-4-4-4-4-4-4-4-|-4-4-4-4-4-4-4-4-|
D|-0-0-0-0-0-0-0-0-|-----------------|-4-4-4-4-4-4-4-4-|-4-4-4-4-4-4-4-4-|


Verse:

e|-0---0---0---0---|-0---0---0---0---|-0---0---0---0---|-0---0---0---0---|
b|-7---7---7---7---|-2---2---2---2---|-0---0---0---0---|-0---0---0---0---|
g|-6---6---4---4---|-2---2---1---1---|-4---4---4---4---|-4---4---4---4---|  4x
D|-4---4---4---4---|-0---0---0---0---|-6---6---7---7---|-6---6---7---7---|
A|-5---5---5---5---|-2---2---2---2---|-4---4---4---4---|-4---4---4---4---|
D|-0---0---0---0---|-----------------|-4---4---4---4---|-4---4---4---4---|


e|-0---0---0---0---|-0---0---0---0---|-0---0---0---0---|-0---0-----------|
b|-7---7---7---7---|-2---2---2---2---|-0---0---0---0---|-0---0-----------|
g|-6---6---4---4---|-2---2---1---1---|-4---4---4---4---|-4---4-----6-4---|  
D|-4---4---4---4---|-0---0---0---0---|-6---6---7---7---|-6---6-4-7-4-4-7-|
A|-5---5---5---5---|-2---2---2---2---|-4---4---4---4---|-4---4-4-4-4-4-4-|
D|-0---0---0---0---|-----------------|-4---4---4---4---|-4---4-4-4-4-4-4-|


Pre-Chorus:

PM . . . . . . . .   . . . . .         . . . . . . . .   . . . . .
e|-----------------|-----------------|-----------------|-----------------|
b|-----------------|-----------------|-----------------|-----------------|
g|-----------------|-----------6-4---|-----------------|-----------6-4---|
D|-6-6-6-6-7-7-7-7-|-6-6-4-6-7-0-0-7-|-6-6-6-6-7-7-7-7-|-6-6-4-6-7-4-4-7-|
A|-0-0-0-0-0-0-0-0-|-0-0-0-0-0-0-0-0-|-4-4-4-4-4-4-4-4-|-4-4-4-4-4-4-4-4-|
D|-0-0-0-0-0-0-0-0-|-0-0-0-0-0-0-0-0-|-4-4-4-4-4-4-4-4-|-4-4-4-4-4-4-4-4-|


e|-----------------|---------------------|-----------------|-2-2-2-2-4-4-4-4-|
b|-----------------|---------------------|-3-3-3-3-5-5-5-5-|-3-3-3-3-3-3-3-3-|
g|-----------------|---------------------|-----------------|-----------------|
D|-6-6-6-6-7-7-7-7-|-9-9-9-9-11-11-11-11-|-4-4-4-4-4-4-4-4-|-4-4-4-4-4-4-4-4-|
A|-0-0-0-0-0-0-0-0-|-0-0-0-0-0--0--0--0--|-2-2-2-2-2-2-2-2-|-2-2-2-2-2-2-2-2-|
D|-----------------|---------------------|-----------------|-----------------|


Chorus:

e|-0-0-0-0-0-0-0-0-|-0-0-0-0-0-0-0-0-|-0-0-0-0-0-0-0-0-|-0-0-0-0-0-0-0-0-|
b|-7-7-7-7-7-7-7-7-|-2-2-2-2-2-2-2-2-|-0-0-0-0-0-0-0-0-|-0-0-0-0-0-0-0-0-|
g|-6-6-6-6-4-4-4-4-|-2-2-2-2-1-1-1-1-|-4-4-4-4-4-4-4-4-|-4-4-4-4-4-6-4-4-|  2x
D|-4-4-4-4-4-4-4-4-|-0-0-0-0-0-0-0-0-|-6-6-6-6-7-7-7-7-|-6-6-4-6-7-4-4-7-|
A|-5-5-5-5-5-5-5-5-|-2-2-2-2-2-2-2-2-|-4-4-4-4-4-4-4-4-|-4-4-4-4-4-4-4-4-|
D|-0-0-0-0-0-0-0-0-|-----------------|-4-4-4-4-4-4-4-4-|-4-4-4-4-4-4-4-4-|


e|-0-0-0-0-0-0-0-0-|-0-0-0-0-0-0-0-0-|-0-0-0-0-0-0-0-0-|-----------------|
b|-7-7-7-7-7-7-7-7-|-2-2-2-2-2-2-2-2-|-0-0-0-0-0-0-0-0-|-5-5-5-5-5-5-5-5-|
g|-6-6-6-6-4-4-4-4-|-2-2-2-2-1-1-1-1-|-4-4-4-4-4-4-4-4-|-6-6-6-6-6-6-6-6-|
D|-4-4-4-4-4-4-4-4-|-0-0-0-0-0-0-0-0-|-6-6-6-6-7-7-7-7-|-6-6-6-6-7-7-7-7-|
A|-5-5-5-5-5-5-5-5-|-2-2-2-2-2-2-2-2-|-4-4-4-4-4-4-4-4-|-0-0-0-0-0-0-0-0-|
D|-0-0-0-0-0-0-0-0-|-----------------|-4-4-4-4-4-4-4-4-|-----------------|


e|-----------------|-2-2-2-2-4-4-4-4-|-----------------|-5-5-5-5-7-7-7-7-|
b|-3-3-3-3-5-5-5-5-|-3-3-3-3-3-3-3-3-|-7-7-7-7-9-9-9-9-|-----------------|
g|-----------------|-----------------|-----------------|-----------------|
D|-4-4-4-4-4-4-4-4-|-4-4-4-4-4-4-4-4-|-7-7-7-7-7-7-7-7-|-7-7-7-7-7-7-7-7-|
A|-2-2-2-2-2-2-2-2-|-2-2-2-2-2-2-2-2-|-5-5-5-5-5-5-5-5-|-5-5-5-5-5-5-5-5-|
D|-----------------|-----------------|-----------------|-----------------|


Bridge:

e|-0-----0-0-----0-|-0-----0-0-----0-|-0-----0-0-------|---------------0-|
b|-0-----0-0-----0-|-0-----0-0-----0-|-0-----0-0-----7-|-7-----7-7-----0-|
g|-----------------|-----------------|---------------6-|-6-----4-4-------|  2x
D|-6-----7-7-----6-|-6-----7-7-----6-|-6-----7-7-----4-|-4-----4-4-----6-|
A|-2-----2-2-----2-|-2-----2-2-----4-|-4-----4-4-----5-|-5-----5-5-----2-|
D|-2-----2-2-----2-|-2-----2-2-----4-|-4-----4-4-----0-|-0-----0-0-----2-|


e|-0-0---0-0-0---0-|-0-0---0-0-0---0-|-0-0---0-0-0-----|-----------------|
b|-0-0---0-0-0---0-|-0-0---0-0-0---0-|-0-0---0-0-0---7-|-7-7---7-7-7---3-|
g|-----------------|-----------------|---------------6-|-6-6---4-4-4-----|
D|-6-6---7-7-7---6-|-6-6---7-7-7---6-|-6-6---7-7-7---4-|-4-4---4-4-4---4-|
A|-2-2---2-2-2---2-|-2-2---2-2-2---2-|-4-4---4-4-4---5-|-5-5---5-5-5---0-|
D|-2-2---2-2-2---2-|-2-2---2-2-2---2-|-4-4---4-4-4---0-|-0-0---0-0-0-----|


e|-----------------|-2-2-2-2-4-4-4-4-|-----------------|-5-5-5-5-7-7-7-7-|
b|-3-3-3-3-5-5-5-5-|-3-3-3-3-3-3-3-3-|-7-7-7-7-9-9-9-9-|-----------------|
g|-----------------|-----------------|-----------------|-----------------|
D|-4-4-4-4-4-4-4-4-|-4-4-4-4-4-4-4-4-|-7-7-7-7-7-7-7-7-|-7-7-7-7-7-7-7-7-|
A|-2-2-2-2-2-2-2-2-|-2-2-2-2-2-2-2-2-|-5-5-5-5-5-5-5-5-|-5-5-5-5-5-5-5-5-|
D|-----------------|-----------------|-----------------|-----------------|


e|-----0-----------|-----------------|-----0-----------|-----------------|
b|-----7-----------|-----------------|-----0-----------|-----------------|
g|-----6-----------|-----------6p4---|-----4-----------|-----------6p4---|  2x
D|-----4-----------|-----4h6h7-----7-|-----6-----------|-----4h6h7-----7-|
A|-----5-----------|-----------------|-----4-----------|-----------------|
D|---0-0-----------|-----------------|---4-4-----------|-----------------|

PM . . . . .     .   . . . . .         . . . . . .   .   . . . . .   . .
e|-----------------|-----------------|-----------------|-----------------|
b|-----------------|-----------------|-----------------|-----------------|  
g|-----------------|-----------6-4---|-----------------|-----------6-4---|  2x
D|-6---6---7-6-----|-6---4-6-7-----7-|-6---6---7-6-----|-6---4-6-7-----7-|
A|-------------7---|-----------------|-------------7---|-----------------|
D|---0---0-------0-|---0-------------|---4---4-------4-|---4-------------|


PM . . . . . . . .   . . . . .         . . . . . . . .   . . . . .
e|-----------------|-----------------|-----------------|-----------------|
b|-----------------|-----------------|-----------------|-----------------|
g|-----------------|-----------6-4---|-----------------|-----------6-4---|
D|-6---6---7-6-----|-6-6-4-6-7-0-0-7-|-6---6---7-6-----|-6-6-4-6-7-4-4-7-|
A|-0-0-0-0-0-0-7-0-|-0-0-0-0-0-0-0-0-|-4-4-4-4-4-4-7-4-|-4-4-4-4-4-4-4-4-|
D|-0-0-0-0-0-0-0-0-|-0-0-0-0-0-0-0-0-|-4-4-4-4-4-4-4-4-|-4-4-4-4-4-4-4-4-|


e|-----------------|---------------------|-----------------|-2-2-2-2-4-4-4-4-|
b|-----------------|---------------------|-3-3-3-3-5-5-5-5-|-3-3-3-3-3-3-3-3-|
g|-6-6-6-6-6-6-6-6-|-7-7-7-7-9--9--9--9--|-----------------|-----------------|
D|-6-6-6-6-7-7-7-7-|-9-9-9-9-11-11-11-11-|-4-4-4-4-4-4-4-4-|-4-4-4-4-4-4-4-4-|
A|-0-0-0-0-0-0-0-0-|-0-0-0-0-0--0--0--0--|-2-2-2-2-2-2-2-2-|-2-2-2-2-2-2-2-2-|
D|-----------------|---------------------|-----------------|-----------------|



Chorus:

e|-0-0-0-0-0-0-0-0-|-0-0-0-0-0-0-0-0-|-0-0-0-0-0-0-0-0-|-0-0-0-0-0-0-0-0-|
b|-7-7-7-7-7-7-7-7-|-2-2-2-2-2-2-2-2-|-0-0-0-0-0-0-0-0-|-0-0-0-0-0-0-0-0-|
g|-6-6-6-6-4-4-4-4-|-2-2-2-2-1-1-1-1-|-4-4-4-4-4-4-4-4-|-4-4-4-4-4-6-4-4-|  2x
D|-4-4-4-4-4-4-4-4-|-0-0-0-0-0-0-0-0-|-6-6-6-6-7-7-7-7-|-6-6-4-6-7-4-4-7-|
A|-5-5-5-5-5-5-5-5-|-2-2-2-2-2-2-2-2-|-4-4-4-4-4-4-4-4-|-4-4-4-4-4-4-4-4-|
D|-0-0-0-0-0-0-0-0-|-----------------|-4-4-4-4-4-4-4-4-|-4-4-4-4-4-4-4-4-|


e|-0-0-0-0-0-0-0-0-|-0-0-0-0-0-0-0-0-|-0-0-0-0-0-0-0-0-|-----------------|
b|-7-7-7-7-7-7-7-7-|-2-2-2-2-2-2-2-2-|-0-0-0-0-0-0-0-0-|-5-5-5-5-5-5-5-5-|
g|-6-6-6-6-4-4-4-4-|-2-2-2-2-1-1-1-1-|-4-4-4-4-4-4-4-4-|-6-6-6-6-6-6-6-6-|
D|-4-4-4-4-4-4-4-4-|-0-0-0-0-0-0-0-0-|-6-6-6-6-7-7-7-7-|-6-6-6-6-7-7-7-7-|
A|-5-5-5-5-5-5-5-5-|-2-2-2-2-2-2-2-2-|-4-4-4-4-4-4-4-4-|-0-0-0-0-0-0-0-0-|
D|-0-0-0-0-0-0-0-0-|-----------------|-4-4-4-4-4-4-4-4-|-----------------|


e|-----------------|-2-2-2-2-4-4-4-4-|-----------------|-5-5-5-5-7-7-7-7-|
b|-3-3-3-3-5-5-5-5-|-3-3-3-3-3-3-3-3-|-7-7-7-7-9-9-9-9-|-----------------|
g|-----------------|-----------------|-----------------|-----------------|
D|-4-4-4-4-4-4-4-4-|-4-4-4-4-4-4-4-4-|-7-7-7-7-7-7-7-7-|-7-7-7-7-7-7-7-7-|
A|-2-2-2-2-2-2-2-2-|-2-2-2-2-2-2-2-2-|-5-5-5-5-5-5-5-5-|-5-5-5-5-5-5-5-5-|
D|-----------------|-----------------|-----------------|-----------------|


e|-0-0-0-0-0-0-0-0-|-0-0-0-0-0-0-0-0-|-0-0-0-0-0-0-0-0-|-0-0-0-0-0-0-0-0-|
b|-7-7-7-7-7-7-7-7-|-2-2-2-2-2-2-2-2-|-0-0-0-0-0-0-0-0-|-0-0-0-0-0-0-0-0-|
g|-6-6-6-6-4-4-4-4-|-2-2-2-2-1-1-1-1-|-4-4-4-4-4-4-4-4-|-4-4-4-4-4-6-4-4-|  2x
D|-4-4-4-4-4-4-4-4-|-0-0-0-0-0-0-0-0-|-6-6-6-6-7-7-7-7-|-6-6-4-6-7-4-4-7-|
A|-5-5-5-5-5-5-5-5-|-2-2-2-2-2-2-2-2-|-4-4-4-4-4-4-4-4-|-4-4-4-4-4-4-4-4-|
D|-0-0-0-0-0-0-0-0-|-----------------|-4-4-4-4-4-4-4-4-|-4-4-4-4-4-4-4-4-|


e|-0-0-0-0-0-0-0-0-|-0-0-0-0-0-0-0-0-|-0-0-0-0-0-0-0-0-|-----------------|
b|-7-7-7-7-7-7-7-7-|-2-2-2-2-2-2-2-2-|-0-0-0-0-0-0-0-0-|-5-5-5-5-5-5-5-5-|
g|-6-6-6-6-4-4-4-4-|-2-2-2-2-1-1-1-1-|-4-4-4-4-4-4-4-4-|-6-6-6-6-6-6-6-6-|
D|-4-4-4-4-4-4-4-4-|-0-0-0-0-0-0-0-0-|-6-6-6-6-7-7-7-7-|-6-6-6-6-7-7-7-7-|
A|-5-5-5-5-5-5-5-5-|-2-2-2-2-2-2-2-2-|-4-4-4-4-4-4-4-4-|-0-0-0-0-0-0-0-0-|
D|-0-0-0-0-0-0-0-0-|-----------------|-4-4-4-4-4-4-4-4-|-----------------|


e|-----------------|-2-2-2-2-4-4-4-4-|-----------------|-5-5-5-5-7-7-7-7-|
b|-3-3-3-3-5-5-5-5-|-3-3-3-3-3-3-3-3-|-7-7-7-7-9-9-9-9-|-----------------|
g|-----------------|-----------------|-----------------|-----------------|
D|-4-4-4-4-4-4-4-4-|-4-4-4-4-4-4-4-4-|-7-7-7-7-7-7-7-7-|-7-7-7-7-7-7-7-7-|
A|-2-2-2-2-2-2-2-2-|-2-2-2-2-2-2-2-2-|-5-5-5-5-5-5-5-5-|-5-5-5-5-5-5-5-5-|
D|-----------------|-----------------|-----------------|-----------------|


End:

e|-9---------------|
b|-7---------------|
g|-7---------------|
D|-0---------------|
A|-0---------------|
D|-0---------------|

have fun! :)
Tap to rate this tab
 
# A B C D E F G H I J K L M N O P Q R S T U V W X Y Z