Song name
# A B C D E F G H I J K L M N O P Q R S T U V W X Y Z

Billy Talent - Rusted From The Rain tab

Intro: 3x 
       \/
e|-----0-------0-------0-----------|
h|---0---0---0---0---0---0---------|
g|---------------------------------|
d|-2-------7-------5-------0-2-4-0-|
a|---------------------------------|
D|---------------------------------|

e|-----0-------0-------0-----------|
h|---0---0---0---0---0---0---------|
g|---------------------------------|
d|-----------------0-------0-------|
a|-3-------3-----------------------|
D|---------------------------------|

----------------------------------------------------------------------------
     2x 
     \/
e|-----------------------------------|
h|-----------------------------------|
g|-----------------------------------|
d|-----------------------------------|
a|-----------------------------------|
D|-2-2-4-6-7-7-9-7-5-5-7-5-0-2-4-0-2-|

over this the 2. guitar

e|-----0-------0-------0-----------|-----0-------0-------0-----------0-|
h|---0---0---0---0---0---0---------|---0---0---0---0---0---0---------0-|
g|---------------------------------|-----------------------------------|
d|-2-------7-------5-------0-2-4-0-|-2-------7-------5-------0-2-4-0-2-|
a|---------------------------------|-----------------------------------|
D|---------------------------------|-----------------------------------|

----------------------------------------------------------------------------
Verse
with the bass you play this 

e|------------------------------0-0-|
h|------------------------------0-0-|
g|----------------------------------|
d|----------------------------------|
a|----------------------------------|
D|----------------------------------|

e|-----0-------0-------0-----------|
h|---0---0---0---0---0---0---------|
g|---------------------------------|
d|-2-------7-------5-------0-2-4-0-|
a|---------------------------------|
D|---------------------------------|

e|-----0---------------0---------------0---------------0-------0---|
h|---0---0---0-020---0---0---0-020---0---0---0-020---0---0---0---0-|
g|-----------------------------------------------------------------|
d|-------------------------------------------------0-------0-------|
a|-3-------3-------0-------0-------3-------3-----------------------|
D|-----------------------------------------------------------------|

----------------------------------------------------------------------------

Ref: 3x                           4x
     \/                           \/
e|-----------------------------| |-0-0-0-0-0-0-0-0-|
h|-----------------------------| |-0-0-0-0-0-0-0-0-|
g|-----------------------------| |-x-x-x-x-x-x-x-x-|
d|-2--2--7-5-7-9-5--5--4-5-4-0-| |-2-2-2-2-2-2-2-2-|
a|-2--2--7-5-7-9-5--5--4-5-4-0-| |-2-2-2-2-2-2-2-2-|
D|-2--2--7-5-7-9-5--5--4-5-4-0-| |-2-2-2-2-2-2-2-2-|

----------------------------------------------------------------------------

    2x 
     \/
e|-----------------------------------|
h|-----------------------------------|
g|-----------------------------------|
d|-----------------------------------|
a|-----------------------------------|
D|-2-2-4-6-7-7-9-7-5-5-7-5-0-2-4-0-2-|

over this the 2. guitar

e|-----0-------0-------0-----------|-----0-------0-------0-----------0-|
h|---0---0---0---0---0---0---------|---0---0---0---0---0---0---------0-|
g|---------------------------------|-----------------------------------|
d|-2-------7-------5-------0-2-4-0-|-2-------7-------5-------0-2-4-0-2-|
a|---------------------------------|-----------------------------------|
D|---------------------------------|-----------------------------------|

----------------------------------------------------------------------------
Verse
with the bass you play this 

e|------------------------------0-0-|
h|------------------------------0-0-|
g|----------------------------------|
d|----------------------------------|
a|----------------------------------|
D|----------------------------------|

e|-----0-------0-------0-----------|
h|---0---0---0---0---0---0---------|
g|---------------------------------|
d|-2-------7-------5-------0-2-4-0-|
a|---------------------------------|
D|---------------------------------|

e|-----0---------------0---------------0---------------0-------0---|
h|---0---0---0-020---0---0---0-020---0---0---0-020---0---0---0---0-|
g|-----------------------------------------------------------------|
d|-------------------------------------------------0-------0-------|
a|-3-------3-------0-------0-------3-------3-----------------------|
D|-----------------------------------------------------------------|

----------------------------------------------------------------------------

Ref: 3x                           7x
     \/                           \/
e|-----------------------------| |-0-0-0-0-0-0-0-0-|
h|-----------------------------| |-0-0-0-0-0-0-0-0-|
g|-----------------------------| |-x-x-x-x-x-x-x-x-|
d|-2--2--7-5-7-9-5--5--4-5-4-0-| |-2-2-2-2-2-2-2-2-|
a|-2--2--7-5-7-9-5--5--4-5-4-0-| |-2-2-2-2-2-2-2-2-|
D|-2--2--7-5-7-9-5--5--4-5-4-0-| |-2-2-2-2-2-2-2-2-|

----------------------------------------------------------------------------

Solo:

e|-------------------------------------------------------------|
h|-----------5--3----------------------------------------------|
g|---0-2-4----------5-4-5-4-2-4-2-0---0-----0-2-4-5-4-2-4---0--|
d|-2------------------------------------2-4--------------------|
a|-------------------------------------------------------------|
D|-------------------------------------------------------------|

e|-------------------------------------------------------------------------|
h|-------------------------5--3--------------------------------------------|
g|-0-----0-2-4-5-4-2-4--4--------5-4-5-4-2-4-2-0---0-----0-2-4-5-4-2-4---0-|
d|---2-4---------------------------------------------2-4-------------------|
a|-------------------------------------------------------------------------|
D|-------------------------------------------------------------------------|

e|---------------------------|
h|---------------------------|
g|-0-----0-2-4-5-4-2-0-2-4-5-|
d|---2-4---------------------|
a|---------------------------|
D|---------------------------|

e|-----------------------------------|
h|-3-3-0-3--5-5-3-5--7-7-8-7-5-3-0-0-|   <4x
g|-----------------------------------| 
d|-----------------------------------|
a|-----------------------------------|
D|-----------------------------------|

e|--------------------------------------------------------------------------
h|-3-3-0-3--5-5-3-5--7-7-5-7--8-8-7-8--10-10-8-10--12-12-10-12--13-13-12-13-
g|--------------------------------------------------------------------------
d|--------------------------------------------------------------------------
a|--------------------------------------------------------------------------
D|--------------------------------------------------------------------------

e|-----------------|
h|-15-15-13-15--17-|
g|-----------------|
d|-----------------|
a|-----------------|
D|-----------------|

----------------------------------------------------------------------------

Ref: 3x                           4x
     \/                           \/
e|-----------------------------| |-0-0-0-0-0-0-0-0-|
h|-----------------------------| |-0-0-0-0-0-0-0-0-|
g|-----------------------------| |-x-x-x-x-x-x-x-x-|
d|-2--2--7-5-7-9-5--5--4-5-4-0-| |-2-2-2-2-2-2-2-2-|
a|-2--2--7-5-7-9-5--5--4-5-4-0-| |-2-2-2-2-2-2-2-2-|
D|-2--2--7-5-7-9-5--5--4-5-4-0-| |-2-2-2-2-2-2-2-2-|

e|-----------------------------|-------------------------------------------
h|-----------------------------|-------------------------------------------
g|-----------------------------|-------------------------------------------
d|-2--2--7-5-7-9-5--5--4-5-4-0-|-2--2--55555555-44444444-33333333-22222222-
a|-2--2--7-5-7-9-5--5--4-5-4-0-|-2--2--55555555-44444444-33333333-22222222-
D|-2--2--7-5-7-9-5--5--4-5-4-0-|-2--2--55555555-44444444-33333333-22222222-

Ref: 3x                           15x
     \/                           \/
e|-----------------------------| |-0-0-0-0-0-0-0-0-|
h|-----------------------------| |-0-0-0-0-0-0-0-0-|
g|-----------------------------| |-x-x-x-x-x-x-x-x-|
d|-2--2--7-5-7-9-5--5--4-5-4-0-| |-2-2-2-2-2-2-2-2-|
a|-2--2--7-5-7-9-5--5--4-5-4-0-| |-2-2-2-2-2-2-2-2-|
D|-2--2--7-5-7-9-5--5--4-5-4-0-| |-2-2-2-2-2-2-2-2-|

e|---------0-|
h|---------5-|
g|---0-2-4---|
d|-2---------|
a|-----------|
D|-----------|

END 


Tap to rate this tab
# A B C D E F G H I J K L M N O P Q R S T U V W X Y Z