Song name
# A B C D E F G H I J K L M N O P Q R S T U V W X Y Z

Billy Talent - Sudden Movements tab

Tuning : Drop D
Tabbed by Jeremy Püringer

Guitar 1 :
e-------------------------------------------------------------------|
b-------------------------------------------------------------------|
g-------------------------------------------------------------------|
d---0--0--2--2--2--5--4--2-( X 4)-----------------------------------|
a---0--0--2--2--2--5--4--2------------------------------------------|
d---0--0--2--2--2--5--4--2------------------------------------------|


Guitar 2 : (After Guitar 1 had played 2 times)
e-------------------------------------------------------------------|
b-------------------------------------------------------------------|
g------2----9---9--( X 2)-------------------------------------------|
d---0----0----0-----------------------------------------------------|
a-------------------------------------------------------------------|
d-------------------------------------------------------------------|
Tap to rate this tab
# A B C D E F G H I J K L M N O P Q R S T U V W X Y Z