Song name
# A B C D E F G H I J K L M N O P Q R S T U V W X Y Z

Billy Talent - Dont Need To Pretend tab

It doesn't sounds realy like the original, because i wrote it from ear. Can be some mistakes.


---------------------------------------------------------------------------|
-3------------------------3--------------3---------------------------------|
-4-x8--2-x8---------------4-2---------------4--4-x2------------------------|
-4-----2-----5-----2------4-2-let ring---4---------------------------------|
-2-----0-----5-x8--2-x8---2-0---------2------------------------------------|
-------------5-----2-------------------------------------------------------|

--------------------------|
-3------------------------|
-4-x8--2-x8---------------|
-4-----2-----5-----2------|
-2-----0-----5-x8--2-x8---|
-------------5-----2------|

--------------------------|
-3------------------------|
-4-x8--2-x8---------------|
-4-----2-----5-----2------|
-2-----0-----5-x8--2-x8---|
-------------5-----2------|

-------2--2--3--3-3------------------------------------------------|
-------3--3--3--3-3------------------------------------------------|
-2--2--2--2--2--2-2--2--2------------------------------------------|
-2--2----------------2--2--2--2--2---------------------------------|
-0--0----------------0--0--2--2--2---------------------------------|
---------------------------2--2--2---------------------------------|

--------------------------|
-3------------------------|
-4-x8--2-x8---------------|
-4-----2-----5-----2------|
-2-----0-----5-x8--2-x8---|
-------------5-----2------|

-2--2-2--------------------------------------------------|
-3--3-3--------------------------------------------------|
-2--2-2--2--2-2------------------------------------------|
---------2--2-2--5--5-5--2--2-2--------------------------|
---------0--0-0--5--5-5--2--2-2--------------------------|
-----------------5--5-5--2--2-2--------------------------|

-----------------------------------------------------------------------------|
-3-----------3---------------------------------------------------------------|
-4-x8--------4-x8------------------------------------------------------------|
-4-----5-----4-----5---------------------------------------------------------|
-2-----5-x8--2-----5-x8------------------------------------------------------|
-------5-----------5---------------------------------------------------------|

--------------------------|
-3------------------------|
-4-x8--2-x8---------------|
-4-----2-----5-----2------|
-2-----0-----5-x8--2-x8---|
-------------5-----2------|

--------------------------------------------------------------------|
-3------------------------------------------------------------------|
-4-x8--2-x8---------------------------------------------------------|
-4-----2-----5-----2------------------------------------------------|
-2-----0-----5-x8--2-x8---------------------------------------------|
-------------5-----2------------------------------------------------|

-------2--2--3--3-3-------------------------------------------------|
-------3--3--3--3-3-------------------------------------------------|
-2--2--2--2--2--2-2--2--2-------------------------------------------|
-2--2----------------2--2--2--2--2----------------------------------|
-0--0----------------0--0--2--2--2----------------------------------|
---------------------------2--2--2----------------------------------|

-----------------------------------------------------------------------------|
-3-----------3---------------------------------------------------------------|
-4-x8--------4-x8------------------------------------------------------------|
-4-----5-----4-----5---------------------------------------------------------|
-2-----5-x8--2-----5-x8------------------------------------------------------|
-------5-----------5---------------------------------------------------------|

-2--2-2--------------------------------------------------|
-3--3-3--------------------------------------------------|
-2--2-2--2--2-2------------------------------------------|
---------2--2-2--5--5-5--2--2-2--------------------------|
---------0--0-0--5--5-5--2--2-2--------------------------|
-----------------5--5-5--2--2-2--------------------------|

-2--2-2--------------------------------------------------|
-3--3-3--------------------------------------------------|
-2--2-2--2--2-2------------------------------------------|
---------2--2-2--5--5-5--2--2-2--------------------------|
---------0--0-0--5--5-5--2--2-2--------------------------|
-----------------5--5-5--2--2-2--------------------------|

---7-5---------------------------------------------------|
-7-----7-5-7-5------------------------------7-10-8-5-7-8-|
---------------7-6--6-7-9-7-6--------6-7-9---------------|
------------------------------7-9--9---------------------|
---------------------------------------------------------|
---------------------------------------------------------|

----7-9-7----10-10-12-10-9-7-9-12-10-9-7-5-3-2-0---------|
-10------7-7-------------------------------------3-2-0---|
----------7----------------------------------------------|
---------------------------------------------------------|
---------------------------------------------------------|
---------------------------------------------------------|

-------2--2--3--2-0----------------------------------------------------|
-------3--3--3------3--------------------------------------------------|
-2--2--2--2--2--------2--2---------------------------------------------|
-2--2-----------------2--2--2--2--2--2-4-------------------------------|
-0--0-----------------0--0--2--2--2--2-4-------------------------------|
----------------------------2--2--2--2-4-------------------------------|

-----------------------------------------------------------------------------|
-3-----------3---------------------------------------------------------------|
-4-x8--------4-x8------------------------------------------------------------|
-4-----5-----4-----5---------------------------------------------------------|
-2-----5-x8--2-----5-x8------------------------------------------------------|
-------5-----------5---------------------------------------------------------|

-2--2-2--------------------------------------------------|
-3--3-3--------------------------------------------------|
-2--2-2--2--2-2------------------------------------------|
---------2--2-2--5--5-5--2--2-2--------------------------|
---------0--0-0--5--5-5--2--2-2--------------------------|
-----------------5--5-5--2--2-2--------------------------|

-2--2-2--------------------------------------------------|
-3--3-3--------------------------------------------------|
-2--2-2--2--2-2------------------------------------------|
---------2--2-2--5--5-5--2--2-2--------------------------|
---------0--0-0--5--5-5--2--2-2--------------------------|
-----------------5--5-5--2--2-2--------------------------|

-2--2-2--------------------------------------------------|
-3--3-3--------------------------------------------------|
-2--2-2--2--2-2------------------------------------------|
---------2--2-2--5--5-5--2--2-2--------------------------|
---------0--0-0--5--5-5--2--2-2--------------------------|
-----------------5--5-5--2--2-2--------------------------|

-------|
-3-----|
-4-----|
-4-----|
-2-----|
-------|
Tap to rate this tab
# A B C D E F G H I J K L M N O P Q R S T U V W X Y Z