Song name
# A B C D E F G H I J K L M N O P Q R S T U V W X Y Z

Billy Talent - Sudden Movements tab

-------------------------------------------------------------------------------
			    Sudden Movements - Billy Talent
-------------------------------------------------------------------------------
Tabbed by: PT-E
Email:   

Tuning: Drop D

 This is from BT3 Deluxe Edition

Intro
  3x                                    1x
e|----------------------------------|-----------------------------------------|
B|-3-----3--------------------------|--3-----3----------------------0---------|
G|-2-----2--------------------------|--2-----2-------------------------0------|
D|-0-----0-------2--2--2------------|--0-----0---------2---2------------------|
A|-0-----0-------2--2--2------------|--0-----0---------2---2---5h7------------|
D|-0-----0----0--2--2--2--5--4--2---|--0-----0-----0---2---2------------------|

e|---------------0--------0-------------------------0--------0----------------|
B|------------------5----------------------------------5----------------------|
G|--------2------------2--------------------2-------------2-------------------|
D|-----4-----4---------------------------4-----4------------------------------|
A|----------------------------------------------------------------------------|
D|--0---------------------------------0---------------------------------------|


  Verse 4x
e|-------------0--------0-----------------------------------------------------|
B|----------------5-----------------------------------------------------------|
G|-------2-----------2-------------0------------------------------------------|
D|----4-----4------------------4-----4----------------------------------------|
A|---------------------------2---2-----2--------------------------------------|
D|-0-----------------------2-------------2------------------------------------|


 Pre-chorus
e|-0--0--0--0--0--0--0--0---0--0--0--0--0--0--0------------------------------|
B|-12-12-12-12-12-12-12-12--12-12-12-12-12-12-12-----------------------------|
G|-0--0--0--0--0--0--0--0---9--9--9--9--9--9--9------------------------------|
D|-10-10-10-10-10-10-10-10--9--9--9--9--9--9--9------------------------------|
A|-12-12-12-12-12-12-12-12--10-10-10-10-10-10-10-0---------------------------|
D|-----------------------------------------------0---------------------------|

e|-0--0--0--0--0--0--0------0-0-0-0-0-0-0-0----------------------------------|
B|-10-10-10-10-10-10-10-----8-8-8-8-8-8-8-8----------------------------------|
G|-0--0--0--0--0--0--0------0-0-0-0-0-0-0-0----------------------------------|
D|-10-10-10-10-10-10-10-----9-9-9-9-9-9-9-9----------------------------------|
A|-9--9--9--9--9--9--9---0--7-7-7-7-7-7-7-7----------------------------------|
D|-----------------------0---------------------------------------------------|


Chorus
  3x                                    1x
e|----------------------------------|-----------------------------------------|
B|-3-----3--------------------------|--3-----3----------------------0---------|
G|-2-----2--------------------------|--2-----2-------------------------0------|
D|-0-----0-------2--2--2------------|--0-----0---------2---2------------------|
A|-0-----0-------2--2--2------------|--0-----0---------2---2---5h7------------|
D|-0-----0----0--2--2--2--5--4--2---|--0-----0-----0---2---2------------------|



e|----------------------------------|-----------------------------------------|
B|-3-----3--------------------------|--3-----3----------------------0---------|
G|-2-----2--------------------------|--2-----2-------------------------0------|
D|-0-----0-------2--2--2------------|--0-----0---------2---2------------------|
A|-0-----0-------2--2--2------------|--0-----0---------2---2---5h7------------|
D|-0-----0----0--2--2--2--5--4--2---|--0-----0-----0---2---2------------------|

e|---------------0--------0-------------------------0--------0----------------|
B|------------------5----------------------------------5----------------------|
G|--------2------------2--------------------2-------------2-------------------|
D|-----4-----4---------------------------4-----4------------------------------|
A|----------------------------------------------------------------------------|
D|--0---------------------------------0---------------------------------------|

Verse

Pre-Chorus

Chorus 2x

Solo
e|----------------------------------------------------------------------------|
B|-------------------7-7-7--8-7-----------------------------------------------|
G|--9-----------7-9--7-7-7--7-7--9---7--9----9br---7--------------------------|
D|-----------9-----------------------------------------9br(9)--9--------------|
A|----------------------------------------------------------------------------|
D|----------------------------------------------------------------------------|

e|---------------------------------------------------------------------------|
B|-------7-7-7--8-7------7-8--8br-7------------------------------------------|
G|-7--9--7-7-7--7-7---9--7-9--9br-7--9--9------------------------------------|
D|---------------------------------------------------------------------------|
A|---------------------------------------------------------------------------|
D|---------------------------------------------------------------------------|

Bridge 2x
e|-0--0--0--0--0--0--0--0--0--0--0--0--0--0--0---0--0--0--0--0--0--0--------|
B|-12-12-12-12-12-12-12-12-12-12-12-12-12-12-12--10-10-10-10-10-10-10-------|
G|-0--0--0--0--0--0--0--0--9--9--9--9--9--9--9---0--0--0--0--0--0--0--------|
D|-10-10-10-10-10-10-10-10-9--9--9--9--9--9--9---10-10-10-10-10-10-10-------|
A|-12-12-12-12-12-12-12-12-10-10-10-10-10-10-10--9--9--9--9--9--9--9--------|
D|--------------------------------------------------------------------------|

e|-0-0-0-0-0-0-0-0-----------------|
B|-8-8-8-8-8-8-8-8-----------------|
G|-0-0-0-0-0-0-0-0-----------------|
D|-9-9-9-9-9-9-9-9-----------------|
A|-7-7-7-7-7-7-7-7-----------------|
D|---------------------------------|


Chorus 2x


  3x                                    1x
e|----------------------------------|-------------------0---------------------|
B|-3-----3--------------------------|--3-----3----------0---------------------|
G|-2-----2--------------------------|--2-----2----------0---------------------|
D|-0-----0-------2--2--2------------|--0-----0----------2---------------------|
A|-0-----0-------2--2--2------------|--0-----0----------2---------------------|
D|-0-----0----0--2--2--2--5--4--2---|--0-----0----------2---------------------|

  3x                                    1X
e|---------------0--------0------|------------------0---------0---------------|
B|------------------5------------|---------------------5------0---------------|
G|--------2------------2---------|----------2-------------2-------------------|
D|-----4-----4-------------------|-------4-----4------------------------------|
A|-------------------------------|--------------------------------------------|
D|--0----------------------------|----0---------------------------------------|



| /  slide up
| \  slide down
| h  hammer-on
| p  pull-off
| ~  vibrato
| +  harmonic
| x  Mute note
===============================================================================
Tap to rate this tab
# A B C D E F G H I J K L M N O P Q R S T U V W X Y Z