Song name
# A B C D E F G H I J K L M N O P Q R S T U V W X Y Z

Billy Talent - Turn Your Back tab

-------------------------------------------------------------------------------
			     Turn Your Back  Billy Talent
-------------------------------------------------------------------------------
Tabbed by:PT-E
Email:

This tab is from BT3 deluxe edition

Tuning: Drop D

Intro
e|-0-0-0--0-0----------------------------------------------------------------------------|
B|-0-0-0--0-0-----------------7--7-7--7--7--8--7------3--3-0--2--2-----------------------|
G|----------------------------7--7-7--7--7--7--7------4--4-0--2--2-----------------------|
D|-2-2-2--2-2--0--2--5--2--0--7--7-7--7--7--7--7------4--4-0--2--2-----------------------|
A|-2-2-2--2-2--0--2--5--2--0--5--5-5--0--5--5--5--0---2--2-0--0--0--0----2p0-----2-2-----|
D|-2-2-2--2-2--0--2--5--2--0----------------------------------------0--5-----4-5-2-2-0-0-|

Pre-Verse              Verse
e|--------------------|---0--------------2-------2-----------------------------------|
B|--------------------|---0--------------3-------3-----------------------------------|
G|--------------------|------------------4-------4-----------------------------------|
D|--------------------|---2--------------4-------4-----------------------------------|
A|--------5---------5-|---2-----------0--2-------2----------------------5---------5--|
D|-2--2-2-0--2--2-2-0-|---2-----2-2-5-------------------0-0-5-4--2--2-2-0--2--2-2-0--|

e|---------------------------------7---7-7--7--7---7--7-------------------------------|
B|-10--10-10--8--10--x-x-12--x-x---8---8-8--7--8---8--8------7--7-7--------x-x-7--x-x-|
G|-------------------x-x-----x-x---9---9-9--9--9---9--9------7--7-7--------x-x-7--x-x-|
D|-10--10-10--9--10--x-x-12--x-x---9---9-9--9--9---9--9------7--7-7-----7--x-x-7--x-x-|
A|-0---0--0---0--0-------0---------7---7-7--7--7---7--7--0---5--5-5-----5--x-x-5--x-x-|
D|-------------------------------------------------------------------0--5-------------|
1.	                          2.
e|----------------------------|-----------------------------------------------------0-0--|
B|-5---5-5---5--5----5--5-----|-5---5-5--5--5---5-5--5----5--5-5---5---5---5-5-5-5--0-0--|
G|----------------------------|-5---5-5--5--5---5-5--5----5--5-5---5---5---5-5-5-5--0-0--|
D|-5---5-5---5--5----5--5-----|-5---5-5--5--5---5-5--5----5--5-5---5---5---5-5-5-5--2-2--|
A|-3---3-3---2--3----3--3---0-|-3---3-3--2--3---3-3--2----3--3-3---2---3---3-3-3-3--2-2--|
D|----------------------------|-----------------------------------------------------2-2--|

Chorus                                   1.                     2.
e|-0------------------------------------|------------------0-0-|-------------------------|
B|-0----------7-7--7---------3-------2--|------------------0-0-|----------5--5--5--------|
G|-0----------7-7--7---------4-------2--|------------------0-0-|----------5--5--5--------|
D|-2----------7-7--7---------4-------2--|--9---7--5--2--2--2-2-|--9---7---5--5--5--------|
A|-2----------5-5--5---------2-------0--|--5---5--2--2--2--2-2-|--5---5---3--3--3--------|
D|-2------------------------------------|--5---4--2--2--2--2-2-|--5---4------------0--0--|

Pre-verse 2x

Verse

Pre-verse

Verse

Chorus 2x

2nd part of chorus 2x                                   1.                    2.
e|-0--0-0--------------------------------------------|-----------------0-0-|--------------------|
B|-0--0-0------------7--7-7-7-7-8-7-----3--3-0--2--2-|-----------------0-0-|--------5--5--5-----|
G|-0--0-0------------7--7-7-7-7-7-7-----4--4-0--2--2-|-----------------0-0-|--------5--5--5-----|
D|-2--2-2-0-2-5-2-0--7--7-7-7-7-7-7-----4--4-0--2--2-|-9---7--5--2--2--2-2-|--9--7--5--5--5-----|
A|-2--2-2-0-2-5-2-0--5--5-5-0-5-5-5--0-2--2-0--0--0-|-5---5--2--2--2--2-2-|--5--5--3--3--3-----|
D|-2--2-2-0-2-5-2-0----------------------------------|-5---4--2--2--2--2-2-|--5--4----------0-0-|


Bridge 4x
e|-----101010--101010--1010-----7-7-7---7-7-7---7-7-----5-5-5---5-5-5---5-5--|
B|-----8-8-8---8-8-8---8-8------7-7-7---7-7-7---7-7-----5-5-5---5-5-5---5-5--|
G|-----9-9-9---9-9-9---9-9---------------------------------------------------|
D|---------------------------------------------------------------------------|
A|-2---7-7-7---7-7-7---7-7------5-5-5---5-5-5---5-5-----3-3-3---3-3-3---3-3--|
D|-2-------------------------------------------------------------------------|
                            2x
e|-3-3-3---3-3-3--3-3-3----|-------101010--101010--1010-----7-7-7---7-7-7---7-7--|
B|-3-3-3---3-3-3--3-3-3----|-------8-8-8---8-8-8---8-8------7-7-7---7-7-7---7-7--|
G|-0-0-0---0-0-0--0-0-0----|-------9-9-9---9-9-9---9-9---------------------------|
D|-------------------------|-----------------------------------------------------|
A|-2-2-2---2-2-2--2-2-2----|--2-/--7-7-7---7-7-7---7-7------5-5-5---5-5-5---5-5--|
D|----------------------0--|--2-/-----------------------0------------------------|

e|----5-5-5---5-5-5---5------3-3-3---3-3-3---3-3-----|--------------------------------|
B|----5-5-5---5-5-5---5------3-3-3---3-3-3---3-3-----|--2----2------2----2---2-2-2-2--|
G|---------------------------0-0-0---0-0-0---0-0-----|--2----2------2----2---2-2-2-2--|
D|---------------------------------------------------|--2----2------2----2---2-2-2-2--|
A|----3-3-3---3-3-3---3------2-2-2---2-2-2---2-2-----|--0----0------0----0---0-0-0-0--|
D|-0----------------------0-----------------------0--|--------------------------------|

e|-------------------------------|----------------------------------|---0-0---|
B|--14-14-14-14-14-14141414------|----------------------------------|---0-0---|
G|--14-14-14-14-14-14141414------|----------------------------------|---0-0---|
D|--14-14-14-14-14-14141414------|----------------------------------|---2-2---|
A|--12-12-12-12-12-12121212------|----------------------------------|---2-2---|
D|---------------------------0-0-|-2--------------------------------|---2-2---|


Chorus
e|-0------------------------------------|------------------0-0-|
B|-0----------7-7--7---------3-------2--|------------------0-0-|
G|-0----------7-7--7---------4-------2--|------------------0-0-|
D|-2----------7-7--7---------4-------2--|--9---7--5--2--2--2-2-|
A|-2----------5-5--5---------2-------0--|--5---5--2--2--2--2-2-|
D|-2------------------------------------|--5---4--2--2--2--2-2-|

 2x                                                    1.                    2.
e|-0--0-0----------------------------------------------|-----------------0-0-|-------------0-0---|
B|-0--0-0------------7--7-7-7-7-8-7-----3--3-0--2--2---|-----------------0-0-|-------------0-0---|
G|-0--0-0------------7--7-7-7-7-7-7-----4--4-0--2--2---|-----------------0-0-|-------------0-0---|
D|-2--2-2-0-2-5-2-0--7--7-7-7-7-7-7-----4--4-0--2--2---|-9---7--5--2--2--2-2-|-------------2-2---|
A|-2--2-2-0-2-5-2-0--5--5-5-0-5-5-5--0-2--2-0--0--0-0-|-5---5--2--2--2--2-2-|----2p0------2-2---|
D|-2--2-2-0-2-5-2-0----------------------------------0-|-5---4--2--2--2--2-2-|--5-----4-5--2-2---|

| /  slide up
| \  slide down
| h  hammer-on
| p  pull-off
| ~  vibrato
| +  harmonic
| x  Mute note
===============================================================================
Tap to rate this tab
 
# A B C D E F G H I J K L M N O P Q R S T U V W X Y Z