Song name
# A B C D E F G H I J K L M N O P Q R S T U V W X Y Z

Billy Talent - Navy Song tab

-------------------------------------------------------------------------------
                           NAVY SONG - Billy Talent
-------------------------------------------------------------------------------

Tuning: Drop D

Intro:
e|------------------12p0--10p0-----------------|-------------8p0-7p0----------------|
B|------10p0--12p0--------------12p0--10p0--12-|-----7p0-8p0---------8p0-7p0--0---0-|
G|----9----------------------------------------|---5------------------------------5-|
D|-10-------10----10----10----10----10----10---|-7------7---7---7---7---7---7---7---|
A|---------------------------------------------|------------------------------------|
D|---------------------------------------------|------------------------------------|

e|------------------12p0--10p0-----------------|-------------8p0-7p0------0-0-0-0-0-0-|
B|------10p0--12p0--------------12p0--10p0--12-|-----7p0-8p0---------8p0--7-7-7-7-7-7-|
G|----9----------------------------------------|---5----------------------5-5-5-5-5-5-|
D|/10-------10----10----10----10----10----10---|-7------7---7---7---7---7-7-7-7-7-7-7-|
A|---------------------------------------------|--------------------------------------|
D|---------------------------------------------|--------------------------------------|

Verse 1:
e|----0--------------|--0---------------|
B|o--10--------------|--7--------------o|
G|----0--------------|--0---------------|
D|----9--------------|--5---------------|
A|o--10--------------|--7--------------o|
D|-------------------|------------------|

e|-------------0-0-0-0-0-0-|-2-2-2-2-2-2-3-3-3-3-3-3-|
B|-3-3-3-3-3-3-3-3-3-3-3-3-|-3-3-3-3-3-3-3-3-3-3-3-3-|
G|-0-0-0-0-0-0-0-0-0-0-0-0-|-0-0-0-0-0-0-0-0-0-0-0-0-|
D|-2-2-2-2-2-2-2-2-2-2-2-2-|-x-x-x-x-x-x-x-x-x-x-x-x-|
A|-3-3-3-3-3-3-3-3-3-3-3-3-|-3-3-3-3-3-3-3-3-3-3-3-3-|
D|-------------------------|-------------------------|

e|--0--0--0--0--0--0--0--0--0--0--0--0-|-0-0-0-0-0-0--0--0--0--0--0--0-|
B|-12-12-12-12-12-12-10-10-10-10-10-10-|-8-8-8-8-8-8-10-10-10-10-10-10-|
G|--0--0--0--0--0--0--0--0--0--0--0--0-|-0-0-0-0-0-0--0--0--0--0--0--0-|
D|-12-12-12-12-12-12-10-10-10-10-10-10-|-9-9-9-9-9-9-10-10-10-10-10-10-|
A|--0--0--0--0--0--0--0--0--0--0--0--0-|-0-0-0-0-0-0--0--0--0--0--0--0-|
D|-------------------------------------|-------------------------------|

Verse 2:
e|----0--------------|--0---------------|
B|o--10--------------|--7--------------o|
G|----0--------------|--0---------------|
D|----9--------------|--5---------------|
A|o--10--------------|--7--------------o|
D|-------------------|------------------|

e|------------------12p0--10p0-----------------|-------------8p0-7p0----------------|
B|------10p0--12p0--------------12p0--10p0--12-|-----7p0-8p0---------8p0-7p0--0---0-|
G|----9----------------------------------------|---5------------------------------5-|
D|-10-------10----10----10----10----10----10---|-7------7---7---7---7---7---7---7---|
A|---------------------------------------------|------------------------------------|
D|---------------------------------------------|------------------------------------|

e|-------------7p0-5p0-----------|-0-0---0-0-0-0---0-0-0-0---0-0-0--0--0-|
B|-----5p0-7p0---------7p0-5p0-7-|-2-2---2-2-2-2---2-2-3-3---3-3-2--2--2-|
G|---4---------------------------|-x-x---x-x-x-x---x-x-x-x---x-x-x--x--x-|
D|-5------5---5---5---5---5---5--|-4-4---4-4-4-4---4-4-4-4---4-4-4--4--4-|
A|-------------------------------|-x-x---x-x-x-x---x-x-x-x---x-x-x--x--x-|
D|-------------------------------|-4-4---4-4-4-4---4-4-4-4---4-4-4--4--4-|

Chorus (really 2 guitars, one can pull it off easy):
e||--------------------------|-------------------------|
B||o-3-3-3-3-3-3-3-3-3-3-3-3-|-5-5-5-5-5-5-7-7-7-7-7-7-|
G||--4-4-4-4-4-4-4-4-4-4-4-4-|-6-6-6-6-6-6-7-7-7-7-7-7-|
D||--x-x-x-x-x-x-x-x-x-x-x-x-|-x-x-x-x-x-x-x-x-x-x-x-x-|
A||o-2-2-2-2-2-2-2-2-2-2-2-2-|-4-4-4-4-4-4-5-5-5-5-5-5-|
D||--------------------------|-------------------------|

e|-----------------------|-----------------------|
B|-----------------------|-----------------------|
G|-----------------------|-----------------------|
D|-5--5-9-7-5-5--5-9-7-5-|-5--5-9-7-5-5--5-9-7-5-|
A|-5--5-------5--5-------|-5--5-------5--5-------|
D|-5--5-------5--5-------|-5--5-------5--5-------|

e|-------------------------|-------------------------------|
B|-------------------------|-------------------------------|
G|-2-2-2-2-2-2-7-7-7-7-7-7-|-9-9-9-9-9-9-11-11-11-11-11-11-|
D|-0-0-0-0-0-0-0-0-0-0-0-0-|-0-0-0-0-0-0--0--0--0--0--0--0-|
A|-0-0-0-0-0-0-0-0-0-0-0-0-|-0-0-0-0-0-0--0--0--0--0--0--0-|
D|-0-0-0-0-0-0-0-0-0-0-0-0-|-0-0-0-0-0-0--0--0--0--0--0--0-|

e|-------------------|-----------------------||
B|-------------------|----------------------o||
G|-6-6--6-6-6-6--6-6-|-7-7--7-7-6-6-6-6-6-6--||
D|-4-4--4-4-4-4--4-4-|-4-4--4-4-4-4-4-4-4-4--||
A|-4-4--4-4-4-4--4-4-|-4-4--4-4-4-4-4-4-4-4-o||
D|-4-4--4-4-4-4--4-4-|-4-4--4-4-4-4-4-4-4-4--||

Interlude:
e|-------------0-----------|-2-----------3-----------|
B|-3-----------3-----------|-3-----------3-----------|
G|-0-----------0-----------|-0-----------0-----------|
D|-2-----------2-----------|-x-----------x-----------|
A|-3-----------3-----------|-3-----------3-----------|
D|-------------------------|-------------------------|

e|--0--0--0--0--0--0--0--0--0--0--0--0-|-0-0-0-0-0-0--0--0--0--0--0--0-|
B|-12-12-12-12-12-12-10-10-10-10-10-10-|-8-8-8-8-8-8-10-10-10-10-10-10-|
G|--0--0--0--0--0--0--0--0--0--0--0--0-|-0-0-0-0-0-0--0--0--0--0--0--0-|
D|-12-12-12-12-12-12-10-10-10-10-10-10-|-9-9-9-9-9-9-10-10-10-10-10-10-|
A|--0--0--0--0--0--0--0--0--0--0--0--0-|-0-0-0-0-0-0--0--0--0--0--0--0-|
D|-------------------------------------|-------------------------------|

Verse 2
Chorus

Bridge:
e||--------------0-0-0-0-0-0-|-2-2-2-2-2-2-3-3-3-3-3-3-|
B||o-3-3-3-3-3-3-3-3-3-3-3-3-|-3-3-3-3-3-3-3-3-3-3-3-3-|
G||--0-0-0-0-0-0-0-0-0-0-0-0-|-0-0-0-0-0-0-0-0-0-0-0-0-|
D||--2-2-2-2-2-2-2-2-2-2-2-2-|-x-x-x-x-x-x-x-x-x-x-x-x-|
A||o-3-3-3-3-3-3-3-3-3-3-3-3-|-3-3-3-3-3-3-3-3-3-3-3-3-|
D||--------------------------|-------------------------|

e|--0--0--0--0--0--0--0--0--0--0--0--0-|-0-0-0-0-0-0--0--0--0--0--0--0--||
B|-12-12-12-12-12-12-10-10-10-10-10-10-|-8-8-8-8-8-8-10-10-10-10-10-10-o||
G|--0--0--0--0--0--0--0--0--0--0--0--0-|-0-0-0-0-0-0--0--0--0--0--0--0--||
D|-12-12-12-12-12-12-10-10-10-10-10-10-|-9-9-9-9-9-9-10-10-10-10-10-10--||
A|--0--0--0--0--0--0--0--0--0--0--0--0-|-0-0-0-0-0-0--0--0--0--0--0--0-o||
D|-------------------------------------|--------------------------------||

e||--0-0-0-0-0-0--0--0--0--0--0--0-|-7-7-7-7-7-7-8-8-8-8-8-8-|
B||o-8-8-8-8-8-8-10-10-10-10-10-10-|-8-8-8-8-8-8-8-8-8-8-8-8-|
G||--0-0-0-0-0-0--0--0--0--0--0--0-|-0-0-0-0-0-0-0-0-0-0-0-0-|
D||--7-7-7-7-7-7--7--7--7--7--7--7-|-x-x-x-x-x-x-x-x-x-x-x-x-|
A||o-8-8-8-8-8-8--8--8--8--8--8--8-|-8-8-8-8-8-8-8-8-8-8-8-8-|
D||--------------------------------|-------------------------|

                                       |1.
e|-12-12-12-12-12-12-10-10-10-10-10-10-|-8-8-8-8-8-8-10-10-10-10-10-10--|
B|--0--0--0--0--0--0--0--0--0--0--0--0-|-0-0-0-0-0-0--0--0--0--0--0--0-o|
G|-12-12-12-12-12-12-10-10-10-10-10-10-|-9-9-9-9-9-9-10-10-10-10-10-10--|
D|--0--0--0--0--0--0--0--0--0--0--0--0-|-0-0-0-0-0-0--0--0--0--0--0--0--|
A|-------------------------------------|-------------------------------o|
D|-------------------------------------|--------------------------------|

 |2.
e|-8-8-8-8-8-8-7-7-7-7-7-7-|--8------------------|
B|-0-0-0-0-0-0-0-0-0-0-0-0-|--0------------------|
G|-9-9-9-9-9-9-7-7-7-7-7-7-|--9------------------|
D|-0-0-0-0-0-0-0-0-0-0-0-0-|-10------------------|
A|-------------------------|---------------------|
D|-------------------------|---------------------|

e|------------------12p0--10p0-----------------|-------------8p0-7p0----------------|
B|------10p0--12p0--------------12p0--10p0--12-|-----7p0-8p0---------8p0-7p0--0---0-|
G|----9----------------------------------------|---5------------------------------5-|
D|-10-------10----10----10----10----10----10---|-7------7---7---7---7---7---7---7---|
A|---------------------------------------------|------------------------------------|
D|---------------------------------------------|------------------------------------|

e|-------------7p0-5p0-----------|-0-0---0-0-0-0---0-0-0-0---0-0-0--0--0-|
B|-----5p0-7p0---------7p0-5p0-7-|-2-2---2-2-2-2---2-2-3-3---3-3-2--2--2-|
G|---4---------------------------|-x-x---x-x-x-x---x-x-x-x---x-x-x--x--x-|
D|-5------5---5---5---5---5---5--|-4-4---4-4-4-4---4-4-4-4---4-4-4--4--4-|
A|-------------------------------|-x-x---x-x-x-x---x-x-x-x---x-x-x--x--x-|
D|-------------------------------|-4-4---4-4-4-4---4-4-4-4---4-4-4--4--4-|

Chorus
Final Chorus:
e||--------------------------|-------------------------|
B||o-3-3-3-3-3-3-3-3-3-3-3-3-|-5-5-5-5-5-5-7-7-7-7-7-7-|
G||--4-4-4-4-4-4-4-4-4-4-4-4-|-6-6-6-6-6-6-7-7-7-7-7-7-|
D||--x-x-x-x-x-x-x-x-x-x-x-x-|-x-x-x-x-x-x-x-x-x-x-x-x-|
A||o-2-2-2-2-2-2-2-2-2-2-2-2-|-4-4-4-4-4-4-5-5-5-5-5-5-|
D||--------------------------|-------------------------|

e|-7--7---7-7-7--7---7-7-|-7--7---7-7-7-7-7-7-7-7-|
B|-8--8---8-8-8--8---8-8-|-8--8---8-8-8-8-8-8-8-8-|
G|-7--7---7-7-7--7---7-7-|-7--7---7-7-7-7-7-7-7-7-|
D|-5--5---5-5-5--5---5-5-|-5--5---5-5-5-5-5-5-5-5-|
A|-5--5---5-5-5--5---5-5-|-5--5---5-5-5-5-5-5-5-5-|
D|-5--5---5-5-5--5---5-5-|-5--5---5-5-5-5-5-5-5-5-|

e|-------------------------|-------------------------------|
B|-------------------------|-------------------------------|
G|-2-2-2-2-2-2-7-7-7-7-7-7-|-9-9-9-9-9-9-11-11-11-11-11-11-|
D|-0-0-0-0-0-0-0-0-0-0-0-0-|-0-0-0-0-0-0--0--0--0--0--0--0-|
A|-0-0-0-0-0-0-0-0-0-0-0-0-|-0-0-0-0-0-0--0--0--0--0--0--0-|
D|-0-0-0-0-0-0-0-0-0-0-0-0-|-0-0-0-0-0-0--0--0--0--0--0--0-|

e|-5-5--5-5-5-5--5-5-|-5-5--5-5-5-5-5-5-5-5--||
B|-7-7--7-7-7-7--7-7-|-7-7--7-7-7-7-7-7-7-7-o||
G|-6-6--6-6-6-6--6-6-|-6-6--6-6-6-6-6-6-6-6--||
D|-4-4--4-4-4-4--4-4-|-4-4--4-4-4-4-4-4-4-4--||
A|-4-4--4-4-4-4--4-4-|-4-4--4-4-4-4-4-4-4-4-o||
D|-4-4--4-4-4-4--4-4-|-4-4--4-4-4-4-4-4-4-4--||

Outro:
e|-------0----|-2----3----|--0------0-----|-0------0--0--0--0--0--0-|--0-||
B|-3-----3----|-3----3----|-12-----10-----|-8-----10-10-10-10-10-10-|--8-||
G|-0-----0----|-0----0----|--0------0-----|-0------0--0--0--0--0--0-|--0-||
D|-2-----2----|-x----x----|-12-----10-----|-9-----10-10-10-10-10-10-|--9-||
A|-3-----3----|-3----3----|--0------0-----|-0------0--0--0--0--0--0-|--7-||
D|------------|-----------|---------------|-------------------------|----||

| /  slide up
| \  slide down
| h  hammer-on
| p  pull-off
| ~  vibrato
| +  harmonic
| x  Mute note
===============================================================================
Tap to rate this tab
 
# A B C D E F G H I J K L M N O P Q R S T U V W X Y Z