Billy Talent - Try Honesty tab

Tabbed by: Antony
Email:antonychouchou30hotmail.com                                       Date: 10 marsh 2011
                                 
                                READ ME:
This is the tab of Try honesty. I have take the other tabs and i change them to 
improve it. My tab was tabed like a partition. The chorus must be play 4x because 
write it 4x its too long!! THE TAB IS THE VERSION COMPLETE AND NOT VERSION OF 
MUSIC VIDEO!! Have fun!!

Tunning: Drop D
 
difficulty: intermediate

Legend:

\ Up

/ Down

* Keep note

x silent note

_/^ swipe the chord

< vibrato

Intro part 1
E|-----0-------0---|-----0-------0---|-0-0-0-0-0-0-0-0-|-0-0-0-0-0-0-----|
B|-----2-------2---|-----2-------2---|-0-0-0-0-0-0-0-0-|-0-0-0-0-0-0-----|
G|-------2-------2-|---2---2---2---2-|-2-2-2-2-2-2-2-2-|-4-4-4-4-6-6-----|
D|---0-------0-----|-----------------|-4-4-4-4-4-4-4-4-|-6-6-6-6-7-7-----|
A|-2-------2-------|-0-------0-------|-----------------|-----------------|
D|-----------------|-----------------|-----------------|-----------------|

Intro part 2
E|-----------------------|-----------------------|-----------------7-|
B|-2--2---2--2--2--2--2-2|-2--2---2--2--2--2--2-2|----5------------7-|
G|-2--2---2--2--2--2--2-2|-2--2---2--2--2--2--2-2|------6----------7-|
D|-0--0---0--0--0--0--0-0|-2--2---2--2--2--2--2-2|-4*-----7-6--7/4---|
A|-2--2---2--2--2--2--2-2|-0--0---0--0--0--0--0-0|-4*-------0*-------|
D|-----------------------|-----------------------|-4*-------0*-------|

E|-----------------------|-----------------------|------------------7-|
B|-2--2---2--2--2--2--2-2|-2--2---2--2--2--2--2-2|----5-------------7-|
G|-2--2---2--2--2--2--2-2|-2--2---2--2--2--2--2-2|------6-----------7-|
D|-0--0---0--0--0--0--0-0|-2--2---2--2--2--2--2-2|-4*-----7-6--7/4----|
A|-2--2---2--2--2--2--2-2|-0--0---0--0--0--0--0-0|-4*-------0*--------|
D|-----------------------|-----------------------|-4*-------0*--------|
          
         End of intro = Voice begin(Verse 1)      
E|------------------7-|--------------------|--------------------|
B|----5-------------7-|--------------------|--------------------|
G|------6-----------7-|--------------------|--------------------|
D|-4*-----7-6--7/4----|-4--------0---------|-4--------0---------|
A|-4*-------0*--------|-4--------0---------|-4--------0---------|
D|-4*-------0*--------|-4--------0---------|-4--------0---------|

E|--------------------|--------------------|--------------------|
B|--------------------|--------------------|--------------------|
G|--------------------|--------------------|--------------------|
D|-4--------0---------|-4--------0---------|-4--------0---------|
A|-4--------0---------|-4--------0---------|-4--------0---------|
D|-4--------0---------|-4--------0---------|-4--------0---------|

E|------------------7-|--------------------|------------------7-|
B|----5-------------7-|--------------------|----5-------------7-|
G|------6-----------7-|--------------------|------6-----------7-|
D|-4*-----7-6--7/4----|-4--------0---------|-4*-----7-6--7/4----| 
A|-4*-------0*--------|-4--------0---------|-4*-------0*--------|
D|-4*-------0*--------|-4--------0---------|-4*-------0*--------|
                           
                            (Go to chorus 1)
                                   |
                                   |
                                   \/
Chorus 1 (Chorus x4)
E|-----------------------|-----------------------|-----------------------|
B|-2--2---2--2--2--2--2-2|-2--2---2--2--2--2--2-2|-----------------------|
G|-2--2---2--2--2--2--2-2|-2--2---2--2--2--2--2-2|-----------------------|
D|-0--0---0--0--0--0--0-0|-2--2---2--2--2--2--2-2|-7--7--7--6--6--6--4--4|
A|-2--2---2--2--2--2--2-2|-0--0---0--0--0--0--0-0|-4--4--4--4--4--4--4--4|
D|-----------------------|-----------------------|-4--4--4--4--4--4--4--4|

E|-----------------------|
B|-----------------------|       (All the tab of chorus must be play 4x)
G|-----------------------|                (After, go to verse 2)
D|-6--6--6--4--4--4--2--2|                           |
A|-2--2--2--2--2--2--2--2|                           |
D|-2--2--2--2--2--2--2--2|                           \/


Verse 2
E|------------------7-|------------------7-|--------------------|
B|----5-------------7-|----5-------------7-|--------------------|
G|------6-----------7-|------6-----------7-|--------------------|
D|-4*-----7-6--7/4----|-4*-----7-6--7/4----|-4--------0---------|
A|-4*-------0*--------|-4*-------0*--------|-4--------0---------|
D|-4*-------0*--------|-4*-------0*--------|-4--------0---------|

E|--------------------|--------------------|--------------------|
B|--------------------|--------------------|--------------------|
G|--------------------|--------------------|--------------------|
D|-4--------0---------|-4--------0---------|-4--------0---------|
A|-4--------0---------|-4--------0---------|-4--------0---------|
D|-4--------0---------|-4--------0---------|-4--------0---------|

E|--------------------|------------------7-|--------------------|
B|--------------------|----5-------------7-|--------------------|
G|--------------------|------6-----------7-|--------------------|
D|-4--------0---------|-4*-----7-6--7/4----|-4--------0---------|
A|-4--------0---------|-4*-------0*--------|-4--------0---------|
D|-4--------0---------|-4*-------0*--------|-4--------0---------|

E|------------------7-|
B|----5-------------7-|              (go to chorus 2)
G|------6-----------7-|                      |
D|-4*-----7-6--7/4----|                      |
A|-4*-------0*--------|                      \/
D|-4*-------0*--------|

Chorus 2(Chorus x4)
E|-----------------------|-----------------------|-----------------------|
B|-2--2---2--2--2--2--2-2|-2--2---2--2--2--2--2-2|-----------------------|
G|-2--2---2--2--2--2--2-2|-2--2---2--2--2--2--2-2|-----------------------|
D|-0--0---0--0--0--0--0-0|-2--2---2--2--2--2--2-2|-7--7--7--6--6--6--4--4|
A|-2--2---2--2--2--2--2-2|-0--0---0--0--0--0--0-0|-4--4--4--4--4--4--4--4|
D|-----------------------|-----------------------|-4--4--4--4--4--4--4--4|

E|-----------------------|
B|-----------------------|      (All the tab of chorus must be play 4x) 
G|-----------------------|                (After,Go to bridge)
D|-6--6--6--4--4--4--2--2|                          |
A|-2--2--2--2--2--2--2--2|                          |
D|-2--2--2--2--2--2--2--2|                          \/

Bridge: part 1
E|-----------------|------------9/---|-----------------|-----------------|
B|------------5_/^-|------------7/---|------------5_/^-|------------2--0-|
G|------------5_/^-|------------7/---|------------5_/^-|------------2--0-|
D|-4--4--4--4------|-0--0--0--0------|-3--3--3--3------|-0--0--0--0-0--0-|
A|-4--4--4--4------|-0--0--0--0------|-3--3--3--3------|-0--0--0--0-2--0-|
D|-4--4--4--4------|-0--0--0--0------|-3--3--3--3------|-0--0--0--0------|

E|-----------------|------------9/---|-----------------|-----------------|
B|------------5_/^-|------------7/---|------------5_/^-|------------2--0-|
G|------------5_/^-|------------7/---|------------5_/^-|------------2--0-|
D|-4--4--4--4------|-0--0--0--0------|-3--3--3--3------|-0--0--0--0-0--0-|
A|-4--4--4--4------|-0--0--0--0------|-3--3--3--3------|-0--0--0--0-2--0-|
D|-4--4--4--4------|-0--0--0--0------|-3--3--3--3------|-0--0--0--0------|

part 2
E|---------------------------|--------------------------|
B|---------------------------|---------------------2--0-|
G|----------2-----------7----|---------------------2--0-|
D|-4--4-2-4-2-4-2-0--0--7--0-|-3--3-2-3-5-3-2-0--0-0--0-|
A|-4--4-2-4---4-2-0--0--5--0-|-3--3-2-3-5-3-2-0--0-2--0-|
D|-4--4-2-4---4-2-0--0-----0-|-3--3-2-3-5-3-2-0--0------|

E|---------------------------|--------------------------|
B|---------------------------|---------------------2--0-|
G|----------2-----------7----|---------------------2--0-|
D|-4--4-2-4-2-4-2-0--0--7--0-|-3--3-2-3-5-3-2-0--0-0--0-|
A|-4--4-2-4---4-2-0--0--5--0-|-3--3-2-3-5-3-2-0--0-2--0-|
D|-4--4-2-4---4-2-0--0-----0-|-3--3-2-3-5-3-2-0--0------|

E|---------------------------|--------------------------------|
B|---------------------------|--------------------------------|
G|----------2-----------7----|--------------------------------|
D|-4--4-2-4-2-4-2-0--0--7--0-|-3-3-3-3-0-0-0-0-2-2-2-2-3-3-3-3|
A|-4--4-2-4---4-2-0--0--5--0-|-3-3-3-3-3-3-3-3-3-3-3-3-3-3-3-3|
D|-4--4-2-4---4-2-0--0-----0-|-3-3-3-3-3-3-3-3-3-3-3-3-3-3-3-3|

E|--------------------------------|
B|--------------------------------|
G|--------------------------------|
D|-4-4-4-4-6-6-6-6-7-7-7-7-9-9-9-9|
A|-0-0-0-0-0-0-0-0-0-0-0-0-0-0-0-0|
D|-0-0-0-0-0-0-0-0-0-0-0-0-0-0-0-0|

Break Down
E|-----0-------0---|-----0-------0---|-----0-------0---|-----0-------0---|
B|-2---2-------2---|-----2-------2---|-----0-------0---|-----0-------0---|
G|-2-----2-------2-|---2---2---2---2-|---2---2---2---2-|---4-------4---4-|
D|-0-0-------0-----|-----------------|-4-------4-------|-6-----6/7-------|
A|-2-------2-------|-0-------0-------|-----------------|-----------------|
D|-----------------|-----------------|-----------------|-----------------|

E|-----0-------0---|-----0-------0---|-----0-------0---|-----0-------0---|
B|-2---2-------2---|-----2-------2---|-----0-------0---|-----0-------0---|
G|-2-----2-------2-|---2---2---2---2-|---2---2---2---2-|---4-------4---4-|
D|-0-0-------0-----|-----------------|-4-------4-------|-6-----6/7-------|
A|-2-------2-------|-0-------0-------|-----------------|-----------------|
D|-----------------|-----------------|-----------------|-----------------|

E|-----0-------0---|-----0-------0---|-0-0-0-0-0-0-0-0-|-0-0-0-0-0-0-----|
B|-----2-------2---|-----2-------2---|-0-0-0-0-0-0-0-0-|-0-0-0-0-0-0-----|
G|-------2-------2-|---2---2---2---2-|-2-2-2-2-2-2-2-2-|-4-4-4-4-6-6-----|
D|---0-------0-----|-----------------|-4-4-4-4-4-4-4-4-|-6-6-6-6-7-7-----|
A|-2-------2-------|-0-------0-------|-----------------|-----------------|
D|-----------------|-----------------|-----------------|-----------------|

End Chorus (Chorus x4)
E|-----------------------|-----------------------|-----------------------|
B|-2--2---2--2--2--2--2-2|-2--2---2--2--2--2--2-2|-----------------------|
G|-2--2---2--2--2--2--2-2|-2--2---2--2--2--2--2-2|-----------------------|
D|-0--0---0--0--0--0--0-0|-2--2---2--2--2--2--2-2|-7--7--7--6--6--6--4--4|
A|-2--2---2--2--2--2--2-2|-0--0---0--0--0--0--0-0|-4--4--4--4--4--4--4--4|
D|-----------------------|-----------------------|-4--4--4--4--4--4--4--4|

E|-----------------------|
B|-----------------------|      (All the tab of chorus must be play 4x) 
G|-----------------------|                (After,Go to Final)
D|-6--6--6--4--4--4--2--2|                          |
A|-2--2--2--2--2--2--2--2|                          |
D|-2--2--2--2--2--2--2--2|                          \/

Final
E|------------------------|-----------------------|-----------------------|
B|----2--2--2-----2--4--2-|-----------------------|-----------------------|
G|-2--2--4--2--2--2--2--2-|-----------------------|-----------------------|
D|-4-----------2----------|-7--7--7--6--6--6--4--4|-6--6--6--4--4--4--2--2|
A|------------------------|-4--4--4--4--4--4--4--4|-2--2--2--2--2--2--2--2|
E|------------------------|-4--4--4--4--4--4--4--4|-2--2--2--2--2--2--2--2|

E|------------------------|-----------------------|-----------------------|
B|----2--2--2-----2--4--2-|-----------------------|-----------------------|
G|-2--2--4--2--2--2--2--2-|-----------------------|-----------------------|
D|-4-----------2----------|-7--7--7--6--6--6--4--4|-6--6--6--4--4--4--2--2|
A|------------------------|-4--4--4--4--4--4--4--4|-2--2--2--2--2--2--2--2|
E|------------------------|-4--4--4--4--4--4--4--4|-2--2--2--2--2--2--2--2|

E|------------------------|-----------------------|-----------------------|
B|----2--2--2-----2--4--2-|-----------------------|-----------------------|
G|-2--2--4--2--2--2--2--2-|-----------------------|-----------------------|
D|-4-----------2----------|-7--7--7--6--6--6--4--4|-6--6--6--4--4--4--2--2|
A|------------------------|-4--4--4--4--4--4--4--4|-2--2--2--2--2--2--2--2|
E|------------------------|-4--4--4--4--4--4--4--4|-2--2--2--2--2--2--2--2|

E|------------------------|--------------------------------|-----|
B|----2--2--2-----2--4--2-|--------------------------------|-2---|
G|-2--2--4--2--2--2--2--2-|--------------------------------|-2---|
D|-4-----------2----------|-7---7---7---7/6-6---6---6---6-6|-0---|
A|------------------------|-4---4---4---4---2---2---2---2-2|-2---|
D|------------------------|-4---4---4---4---2---2---2---2-2|-----|

Am not sure for the final, i have find this in two minut with the other tabs on 
internet and i did modified the rif -_-
Tap to rate this tab
 
# A B C D E F G H I J K L M N O P Q R S T U V W X Y Z