Billy Talent - Tears Into Wine tab

e--------------------------------------------------------------------------|
B-----6--4--2--1-----------------------------------------------------------|
G--3--------------3--1-----1--3--5--6--3--1-------------3--3--5--3-----3--3|
D-----------------------3--------------------4--3--3-3--------------3------|
A--------------------------------------------------------------------------|
E--------------------------------------------------------------------------|

e--------------------------------------------------------------------------|
B-----------------------2--2--1--1------6--4--2--1-------------------------|
G--5--3-----3--3--5--3---------------3--------------3--1-----1--3--5--6--8-|
D--------2------------------------------------------------3----------------|
A--------------------------------------------------------------------------|
E--------------------------------------------------------------------------|

e--------------------------------------------------------------------------|
B-----------------------------------------------------------2--2--1--1-----|
G-10--11--10------3--3--5--3-----3--3--5--3-----3--3--5--3-----------------|
D--------------3--------------3--------------2-----------------------------|
A--------------------------------------------------------------------------|
E--------------------------------------------------------------------------|

After that just play the chords.

I don't know how to play the bass line in the background...

Hope you enjoy
Tap to rate this tab
 
# A B C D E F G H I J K L M N O P Q R S T U V W X Y Z