Billy Talent - Pins And Neddles tab

Billy Talent  Pins and Needles

Drop D Tuning ( D A D G B e )

Intro Riff 1

|---------------1---3---5------|---------------------------|
|---------------3---4-----6----|---------------------------|
|----------------------------7\|---------------------------|
|-------7---8-----0---0--------|-------0---3---3-5-7---10--| x 2
|---5h6-----------0---0--------|---1h3---------------------|
|-5-------5---0---0---0--------|-1-------1---0-------0-----|

Verse

|------------------------------|---------------------------|
|------------------------------|---------------------------|
|------------------------------|---------------------------|
|-5---------------0------------|-1-------------0-----------|
|-5---------------0------------|-1-------------0-----------|
|-5---------------0------------|-1-------------0-----------|

|-----------------------------|--------------------------|
|-----------------------------|--------------------------|
|-----------------------------|--------------------------|
|-5--------------0------------|-------0---3---3-5-7---10-|
|-5--------------0------------|---1h3--------------------|
|-5--------------0------------|-1-------1---0-------0----|

Bridge

|---------------------------|-------------------------------|
|-4-----3h4-----------------|-------------------------------|
|-5---5-----5-------------5-|---------------------5---------|
|-5-5---------5---7---5h7-3-|-------5-8-7-5---7-------8---7-|
|-3-------------------3-----|-----5-------------------------|
|---------------3---3-------|-3/5-----------5---0---0---0---|

|-------------------------|--------------------------------|
|-----------------------3-|-4------------------------------|
|-------------------3/5---|-5------------------------------|
|-----1-5-3-1-----3-3/5---|-5------------7-----------------|
|---1---------0-1---------|-3------------3-----------------|
|-1-----------------------|--------------3-----------------|

Bridge Riff 2

|---------------1---3---5-------|--------------------------|
|---------------3---4-----6-----|--------------------------|
|---------------------------7\--|--------------------------| x 2
|-5-5---7-5-8-0---0---0---------|-1-1---0-1-3-0-3-5-7-0-10-|
|-5-5h6---5---0---0---0---------|-1-1h3---1---0-0-----0----|
|-5-5-----5---0---0---0---------|-1-1-----1---0-0-----0----|

|----------------------|---------------------------|
|----------------------|---------------------------|
|------------2---------|------------2--------------|
|-5-------5\\0---------|-5----------0--------------|
|-5-------5\\0---------|-1----------0--------------|
|-5-------5\\0---------|-1----------0--------------|

|----------------------|--------------------------|
|----------------------|--------------------------|
|------------2---------|--------------------------|
|-5-------5\\0---------|-1-1---0-1-3-0-3-5-7-0-10-|
|-5-------5\\0---------|-1-1h3---1---0-0-----0----|
|-5-------5\\0---------|-1-1-----1---0-0-----0----|

Bridge Riff 3

|---------------------------|---------------------------|
|-4-----3-4-----------------|---------------------------|
|-5---5---5-5-------------5-|---------------------------|
|-5-5-----5---5-3-7-3-5-7-3-|-3/5-8-5-8-7-5---7-10-8-7\-|
|-3-------------3-3-3-3-3---|-3/5-5-----5---5-0-0--0-0\-|
|---------------3-3-3---3---|-3/5-5---------5-0-0--0-0\-|

|---------------------------|        
|---------- ------------3---|        
|-----------------33/5-----| x 2 
|-1---1-5-3-1---3-3---------|       
|-1-1-----1-----1-1---------|       
|-1-1-----1---0-----------0-|       

|---------------------------|
|-4-------------------------|
|-5-------------------------|
|-5----------7--------------|
|-3----------3--------------|
|------------3--------------|

Interlude Riff 2

|---------------1---3---5-------|--------------------------|
|---------------3---4-----6-----|--------------------------|
|---------------------------7\--|--------------------------| 
|-5-5---7-5-8-0---0---0---------|-1-1---0-1-3-0-3-5-7-0-10-|
|-5-5h6---5---0---0---0---------|-1-1h3---1---0-0-----0----|
|-5-5-----5---0---0---0---------|-1-1-----1---0-0-----0----|

Riff 4

Guitar 1

|-6-6-6-6-6-6-6-6-6-6-6-6-6-6-6-6-|---------------------------------|
|---------------------------------|-------------6--6--6--6----------|
|---------------------------------|---------------------------------| x 3
|---------------------------------|---------------------------------|
|---------------------------------|---------------------------------|
|---------------------------------|---------------------------------|

Guitar 2

|---------------------------------|-----------------------------|
|-6-6-6-6-6-6-6-6-6-6-6-6-6-6-6-6-|-----------------------------|
|-8-8-8-8-8-8-8-8-7-7-7-7-7-7-7-7-|-------------5--3--3--2------| x 3
|-8-8-8-8-8-8-8-8-8-8-8-8-8-8-8-8-|-3-3-7-3-5-7-3--1--1--1--3---|
|-----------------8-8-8-8-8-8-8-8-|-3-3---3---3-3--1--1--1--1-0-|
|---------------------------------|-3-3---3---3-3--1--1--1--1-0-|

Guitar 3

|---------------------------------|-----------------------------|
|---------------------------------|-----------------------------|
|-0-0-0-0-0-0-0-0-----------------|-------------5--3--3--2------| x 3
|-5-5-5-5-5-5-5-5-5-5-5-5-5-5-5-5-|-3-3-7-3-5-7-3--1--1--1--3---|
|-6-6-6-6-6-6-6-6-5-5-5-5-5-5-5-5-|-3-3---3---3-3--1--1--1--1-0-|
|-----------------5-5-5-5-5-5-5-5-|-3-3---3---3-3--1--1--1--1-0-|

Bridge Riff 3

|---------------------------|---------------------------|
|-4-----3-4-----------------|---------------------------|
|-5---5---5-5-------------5-|---------------------------|
|-5-5-----5---5-3-7-3-5-7-3-|-3/5-8-5-8-7-5---7-10-8-7\-|
|-3-------------3-3-3-3-3---|-3/5-5-----5---5-0-0--0-0\-|
|---------------3-3-3---3---|-3/5-5---------5-0-0--0-0\-|

|---------------------------|        
|---------- ------------3---|        
|-----------------33/5-----| x 3
|-1---1-5-3-1---3-3---------|       
|-1-1-----1-----1-1---------|       
|-1-1-----1---0-----------0-|       

|---------------------------|
|-4-------------------------|
|-5-------------------------|
|-5----------7--------------|
|-3----------3--------------|
|------------3--------------|

Outro Riff 1

|---------------1---3---5------|---------------------------|
|---------------3---4-----6----|---------------------------|
|----------------------------7\|---------------------------|
|-------7---8-----0---0--------|-------0---3---3-5-7---10--| x 2
|---5h6-----------0---0--------|---1h3---------------------|
|-5-------5---0---0---0--------|-1-------1---0-------0-----|

|------------------------------|
|------------------------------|
|------------------------------|
|-5----------------------------|
|-5----------------------------|
|-5----------------------------|

\ Slide down
/ Slide up
h hammer on
p pull off

Tap to rate this tab
 
# A B C D E F G H I J K L M N O P Q R S T U V W X Y Z