Song name
# A B C D E F G H I J K L M N O P Q R S T U V W X Y Z

Billy Talent - Fallen Leaves tab

This is how _I_ play the solo. 
Not saying that every other method is wrong, 
but this just seems a bit easier to play.


e|---------------------------------------------|
B|---------------------------------------------|
G|------------------12~~-------------------12~-|
D|-10h12h13-10-12-9-------12h13h15-12-13-8-----|
A|---------------------------------------------|
D|---------------------------------------------|

e|---------------------------------------------|
B|---------------------------------(11-13-15)--|Notes in Brackets are a 
G|-10--12-13-----12-13-----12--10---15-17-19\--|different way of playing 
D|---10-----13-10-----13-10--10----------------|those notes below it.
A|---------------------------------------------|(-11-13-15-) is the same as
D|---------------------------------------------| -15-17-19-. This is just if you 
don't wanna make the jump to 15.


e|---------------------------------------------|
B|---------------------------------------------|
G|------------------12~~-------------------12~-|
D|-10h12h13-10-12-9-------12h13h15-12-13-8-----|
A|---------------------------------------------|
D|---------------------------------------------|

e|---------------------------------------------|
B|---------------------------------(11-13)-----|Same deal here.
G|-10--12-13-----12-13-----12--10---15-17~~~---|
D|---10-----13-10-----13-10--10----------------|
A|---------------------------------------------|
D|---------------------------------------------|
Tap to rate this tab
 
# A B C D E F G H I J K L M N O P Q R S T U V W X Y Z