Song name
# A B C D E F G H I J K L M N O P Q R S T U V W X Y Z

Billy Talent - Cut The Curtains tab

Cut The Curtains [SOLO]
Song by: Billy Talent
Tabbed by: LYING PACKAGE
Tuning: Drop D

E|------------------------------------------------|
A|-------10---------------------------------------|
D|7\2/10----10-7---7-9-9b--9-7-5-7~ ---------7---7|
G|---------------7-------------------5h6h7-0--7-7-|
B|---------------------------------------------8--|
D|------------------------------------------------|


E|------------------------------------------------|
A|------------------------------------------------|
D|9-9b--9-7-5-7~ ----------------------------3-0h2|
G|---------------5h6h7-5--3-3--2--3-5-3-1-2-------|
B|------------------------------------------------|
D|------------------------------------------------|
Tap to rate this tab
 
# A B C D E F G H I J K L M N O P Q R S T U V W X Y Z