Song name
# A B C D E F G H I J K L M N O P Q R S T U V W X Y Z

Billy Talent - Prisoners Of Today tab

-------------------------------------------------------------------------------
                             Prisoners Of Today - Billy Talent
-------------------------------------------------------------------------------
Tabbed by: Sean (CrashAshes43)
Email: xGib50nKing@yahoo.com

Tuning: Dropped D

Section - Guitar(s) [Effect] (Start time - End Time)
Got it? Good.

Song: Prisoners Of Today
Artist: Billy Talent
Album: Billy Talent
Genre: Alternative/Punk Rock
Released: September 16th, 2003

Guitar 1 - Ian D'Sa

Intro - Guitar 1 [Clean] (0:00 - 0:17)
e|-------------------------------------------------------------------|
B|-------------------------------------------------------------------|
G|-----8-----7-----5-------5---5---5---7-----5-----3-------3---3---3-|
D|-5-5---5-5---5-5---5-5-8---7---5--\3---3-3---3-3---3-3-7---5---3---|
A|-------------------------------------------------------------------|
D|-------------------------------------------------------------------|

e|--------------------------------------------------------------------------|
B|--------------------------------------------------------------------------|
G|---2-----5-2-2-5-2-2-5-2-2-5-2-2-5b7r5-5-2-2-5-2-2-5-2-2-5-2-2-5-2-2-5b7--|
D|-0---0-0-0-0-0-0-0-0-0-0-0-0-0-0-0---0-0-3-3-3-3-3-3-3-3-3-3-3-3-3-3------|
A|--------------------------------------------------------------------------|
D|--------------------------------------------------------------------------|

Main Riff - Guitar 1 [Distortion] (0:17 - 0:28)
e|-----------------------------------------------------------------|
B|-----------------------------------------------------------------|
G|-8-8-8-7-7-7-5-5-5---------------7-7-7-5-5-5-3-3-3---------------|
D|-5-5-5-5-5-5-5-5-5-8-8-8-7-7-5-5-3-3-3-3-3-3-3-3-3-7-7-7-5-5-3-3-|
A|-5-5-5-5-5-5-5-5-5-5-5-5-5-5-5-5-3-3-3-3-3-3-3-3-3-3-3-3-3-3-3-3-|
D|-5-5-5-5-5-5-5-5-5-5-5-5-5-5-5-5-3-3-3-3-3-3-3-3-3-3-3-3-3-3-3-3-|

e|-----------------------------------------------------------------------------|
B|-----------------------------------------------------------------------------|
G|-2-2-2-5-2-2-5-2-2-5-2-2-5-2-2-5b7r5-5-2-2-2-5-2-2-5-2-2-5-2-2-5-2-2-5b7r5-5-|
D|-0-0-0-0-0-0-0-0-0-0-0-0-0-0-0-0-0-0-0-3-3-3-3-3-3-3-3-3-3-3-3-3-3-3-3-3-3-3-|
A|-0-0-0-0-0-0-0-0-0-0-0-0-0-0-0-0-0-0-0-3-3-3-3-3-3-3-3-3-3-3-3-3-3-3-3-3-3-3-|
D|-0-0-0-0-0-0-0-0-0-0-0-0-0-0-0-0-0-0-0-3-3-3-3-3-3-3-3-3-3-3-3-3-3-3-3-3-3-3-|

Verse 1 - Guitar 1 [Distortion] (0:29 - 0:52)
e|--------------------------------------|
B|------------1-1-------------------1-1-|
G|-3-3--------2-2--------3-3--------2-2-|
D|-0-0--------0-0--------0-0--------0-0-|
A|--------3-3--------3-3--------3-3-----|
D|--------------------------------------|
                                                         x3
e|-----------3-3----------5-5-----------3-3----------5-5--|-x-5-|
B|.-----3-3--3-3-----1-1--4-4-----------3-3-----1-1--4-4-.|-x-4-|
G|------3-3--3-3-----2-2--5-5------3-3--3-3-----2-2--5-5--|-x-5-|
D|------0-0----------0-0-----------0-0----------0-0-------|-----|
A|.-3-3----------3-3-----------3-3----------3-3----------.|-----|
D|--------------------------------------------------------|-----|

Pre-Chorus - Guitar 1 [Clean] (0:52 - 1:03)
e|-------------------------------------------------------------------|
B|-------------------------------------------------------------------|
G|-----8-----7-----5-------5---5---5---7-----5-----3-------3---3---3-|
D|-5-5---5-5---5-5---5-5-8---7---5--\3---3-3---3-3---3-3-7---5---3---|
A|-------------------------------------------------------------------|
D|-------------------------------------------------------------------|

e|--------------------------------------------------------------------------|
B|--------------------------------------------------------------------------|
G|---2-----5-2-2-5-2-2-5-2-2-5-2-2-5b7r5-5-2-2-5-2-2-5-2-2-5-2-2-5-2-2-5b7--|
D|-0---0-0-0-0-0-0-0-0-0-0-0-0-0-0-0---0-0-3-3-3-3-3-3-3-3-3-3-3-3-3-3------|
A|--------------------------------------------------------------------------|
D|--------------------------------------------------------------------------|

Break - Guitar 1 [Distortion] (1:04 - 1:09)
e|----------3-3----------5-5-----------3-3----------5-5-|
B|-----3-3--3-3-----1-1--4-4-----------3-3-----1-1--4-4-|
G|-----3-3--3-3-----2-2--5-5------3-3--3-3-----2-2--5-5-|
D|-----0-0----------0-0-----------0-0----------0-0------|
A|-3-3----------3-3-----------3-3----------3-3----------|
D|------------------------------------------------------|

Verse 2 - Guitar 1 [Distortion] (1:09 - 1:33)
e|------------------------------------------|
B|-----3-3--------1-1-------------------1-1-|
G|-----3-3--------2-2--------3-3--------2-2-|
D|-----0-0--------0-0--------0-0--------0-0-|
A|-3-3--------3-3--------3-3--------3-3-----|
D|------------------------------------------|
                                                         x3
e|-----------3-3----------5-5-----------3-3----------5-5--|-x-5-|
B|.-----3-3--3-3-----1-1--4-4-----------3-3-----1-1--4-4-.|-x-4-|
G|------3-3--3-3-----2-2--5-5------3-3--3-3-----2-2--5-5--|-x-5-|
D|------0-0----------0-0-----------0-0----------0-0-------|-----|
A|.-3-3----------3-3-----------3-3----------3-3----------.|-----|
D|--------------------------------------------------------|-----|

Pre-Chorus - Guitar 1 [Clean] (1:33 - 1:44)
e|-------------------------------------------------------------------|
B|-------------------------------------------------------------------|
G|-----8-----7-----5-------5---5---5---7-----5-----3-------3---3---3-|
D|-5-5---5-5---5-5---5-5-8---7---5--\3---3-3---3-3---3-3-7---5---3---|
A|-------------------------------------------------------------------|
D|-------------------------------------------------------------------|

e|--------------------------------------------------------------------------|
B|--------------------------------------------------------------------------|
G|---2-----5-2-2-5-2-2-5-2-2-5-2-2-5b7r5-5-2-2-5-2-2-5-2-2-5-2-2-5-2-2-5b7--|
D|-0---0-0-0-0-0-0-0-0-0-0-0-0-0-0-0---0-0-3-3-3-3-3-3-3-3-3-3-3-3-3-3------|
A|--------------------------------------------------------------------------|
D|--------------------------------------------------------------------------|

Chorus - Guitar 1 [Distortion] (1:45 - 2:08)
e|------------------------------------------------------------------|
B|.-----------------------------------------------------------------|
G|--8-8-8-7-7-7-5-5-5---------------7-7-7-5-5-5-3-3-3---------------|
D|--5-5-5-5-5-5-5-5-5-8-8-8-7-7-5-5-3-3-3-3-3-3-3-3-3-7-7-7-5-5-3-3-|
A|.-5-5-5-5-5-5-5-5-5-5-5-5-5-5-5-5-3-3-3-3-3-3-3-3-3-3-3-3-3-3-3-3-|
D|--5-5-5-5-5-5-5-5-5-5-5-5-5-5-5-5-3-3-3-3-3-3-3-3-3-3-3-3-3-3-3-3-|
                                                                               x2
e|------------------------------------------------------------------------------|
B|-----------------------------------------------------------------------------.|
G|-2-2-2-5-2-2-5-2-2-5-2-2-5-2-2-5b7r5-5-2-2-2-5-2-2-5-2-2-5-2-2-5-2-2-5b7(7)7}-|
D|-0-0-0-0-0-0-0-0-0-0-0-0-0-0-0-0-0-0-0-3-3-3-3-3-3-3-3-3-3-3-3-3-3-3-3-3-3-3--|
A|-0-0-0-0-0-0-0-0-0-0-0-0-0-0-0-0-0-0-0-3-3-3-3-3-3-3-3-3-3-3-3-3-3-3-3-3-3-3-.|
D|-0-0-0-0-0-0-0-0-0-0-0-0-0-0-0-0-0-0-0-3-3-3-3-3-3-3-3-3-3-3-3-3-3-3-3-3-3-3--|

Bridge - Guitar 1 [Distortion] (2:08 - 2:31)            x2
e|----------------------------0-0--0-0--0----------------|
B|.-4-4--4-4--4--3-3--3-3--3--6-6--6-6--6---------------.|
G|--5-5--5-5--5--3-3--3-3--3--7-7--7-7--7--3-3--3-3--3---|
D|--5-5--5-5--5--3-3--3-3--3--7-7--7-7--7--1-1--1-1--1---|
A|.-3-3--3-3--3--1-1--1-1--1--5-5--5-5--5--1-1--1-1--1--.|
D|----------------------------0-0--0-0--0--1-1--1-1--1---|
                                                        x2
e|----------------------------0--------------------------|
B|.-4------------3------------6-------------------------.|
G|--5------------3------------7------------3-------------|
D|--5------------3------------7------------1-------------|
A|.-3------------1------------5------------1------------.|
D|----------------------------0------------1-------------|
They're just eight notes so I'm not filling in all the chords.

Interlude - Guitar 1 [Clean] (2:31 - 2:55)
e|--------------------------------------------------------------------|
B|.-------------------------------------------------------------------|
G|------8-----7-----5-------5---5---5---7-----5-----3-------3---3---3-|
D|--5-5---5-5---5-5---5-5-8---7---5--\3---3-3---3-3---3-3-7---5---3---|
A|.-------------------------------------------------------------------|
D|--------------------------------------------------------------------|
                                                                           x2
e|--------------------------------------------------------------------------|
B|-------------------------------------------------------------------------.|
G|---2-----5-2-2-5-2-2-5-2-2-5-2-2-5b7r5-5-2-2-5-2-2-5-2-2-5-2-2-5-2-2-5b7--|
D|-0---0-0-0-0-0-0-0-0-0-0-0-0-0-0-0---0-0-3-3-3-3-3-3-3-3-3-3-3-3-3-3------|
A|-------------------------------------------------------------------------.|
D|--------------------------------------------------------------------------|

Chorus - Guitar 1 [Distortion] (2:56 - 3:43)
e|------------------------------------------------------------------|
B|.-----------------------------------------------------------------|
G|--8-8-8-7-7-7-5-5-5---------------7-7-7-5-5-5-3-3-3---------------|
D|--5-5-5-5-5-5-5-5-5-8-8-8-7-7-5-5-3-3-3-3-3-3-3-3-3-7-7-7-5-5-3-3-|
A|.-5-5-5-5-5-5-5-5-5-5-5-5-5-5-5-5-3-3-3-3-3-3-3-3-3-3-3-3-3-3-3-3-|
D|--5-5-5-5-5-5-5-5-5-5-5-5-5-5-5-5-3-3-3-3-3-3-3-3-3-3-3-3-3-3-3-3-|
                                                                               x4
e|------------------------------------------------------------------------------|
B|-----------------------------------------------------------------------------.|
G|-2-2-2-5-2-2-5-2-2-5-2-2-5-2-2-5b7r5-5-2-2-2-5-2-2-5-2-2-5-2-2-5-2-2-5b7(7)7}-|
D|-0-0-0-0-0-0-0-0-0-0-0-0-0-0-0-0-0-0-0-3-3-3-3-3-3-3-3-3-3-3-3-3-3-3-3-3-3-3--|
A|-0-0-0-0-0-0-0-0-0-0-0-0-0-0-0-0-0-0-0-3-3-3-3-3-3-3-3-3-3-3-3-3-3-3-3-3-3-3-.|
D|-0-0-0-0-0-0-0-0-0-0-0-0-0-0-0-0-0-0-0-3-3-3-3-3-3-3-3-3-3-3-3-3-3-3-3-3-3-3--|

************************************

| /   slide up
| \   slide down
| h   hammer-on
| p   pull-off
| ~   vibrato
| +   harmonic
| x   Mute note
| b   Bend
| pb  Pre-bend
| br  Bend release
| pbr Pre-bend release
| brb Bend release bend

************************************
Tap to rate this tab
# A B C D E F G H I J K L M N O P Q R S T U V W X Y Z