Song name
# A B C D E F G H I J K L M N O P Q R S T U V W X Y Z

Billy Talent - Viking Death March tab

Viking Death March- Billy Talent


Intro:                                x8, then play
e|--------------------------------------|---------------------------------|
B|--------------------------------------|---7--7--7-----------------------|
G|--------------------------------------|---7--7--7-----------------------|
D|--5--5-5-5-5--5-5-5-5--5-5-5-5-5-5-5--|---7--7--7-----------------------|
A|--5--5-5-5-3--3-3-3-1--1-1-1-5-5-5-5--|---5--5--5-----------------------|
D|--5--5-5-5-3--3-3-3-1--1-1-1-5-5-5-5--|---------------------------------|


Verse:  x2
e|------------------------------------------------------------------------|
B|----------------------------------7-7-7-7-7-7-7-7-----------------------|
G|----------------------------------7-7-7-7-7-7-7-7-----------------------|
D|--5-5-5-5-5-5-5-5-5-5-5-5-5-5-5-5-7-7-7-7-7-7-7-7-3-3-3-3-3-3-3-3-------|
A|--5-5-5-5-5-5-5-5-5-5-5-5-5-5-5-5-5-5-5-5-5-5-5-5-3-3-3-3-3-3-3-3-------|
D|--5-5-5-5-5-5-5-5-5-5-5-5-5-5-5-5-----------------3-3-3-3-3-3-3-3-------|

e|------------------------------------------------------------------------|
B|--5-5-5-5-5-5-5-5-----------------3-3-3-3-3-3-3-3-7-7-7-7-7-7-7-7-------|
G|--5-5-5-5-5-5-5-5-----------------3-3-3-3-3-3-3-3-7-7-7-7-7-7-7-7-------|
D|--5-5-5-5-5-5-5-5-1-1-1-1-1-1-1-1-3-3-3-3-3-3-3-3-7-7-7-7-7-7-7-7-------|
A|--3-3-3-3-3-3-3-3-1-1-1-1-1-1-1-1-1-1-1-1-1-1-1-1-5-5-5-5-5-5-5-5-------|
D|------------------1-1-1-1-1-1-1-1---------------------------------------|


Pre Chorus:
e|------------------------------------------------------------------------|
B|---------------7--7--7--7----------------8--8--8--8---------------------|
G|---------------7--7--7--7----------------8--8--8--8---------------------|
D|--5--5--5--5---7--7--7--7---3--3--3--3---8--8--8--8---------------------|
A|--5--5--5--5---5--5--5--5---3--3--3--3---6--6--6--6---------------------|
D|--5--5--5--5----------------3--3--3--3----------------------------------|


Chorus:                                x6, then play
e|--------------------------------------|---------------------------------|
B|--------------------------------------|---7--7--7-----------------------|
G|--------------------------------------|---7--7--7-----------------------|
D|--5--5-5-5-5--5-5-5-5--5-5-5-5-5-5-5--|---7--7--7-----------------------|
A|--5--5-5-5-3--3-3-3-1--1-1-1-5-5-5-5--|---5--5--5-----------------------|
D|--5--5-5-5-3--3-3-3-1--1-1-1-5-5-5-5--|---------------------------------|


Verse:  x2
e|------------------------------------------------------------------------|
B|----------------------------------7-7-7-7-7-7-7-7-----------------------|
G|----------------------------------7-7-7-7-7-7-7-7-----------------------|
D|--5-5-5-5-5-5-5-5-5-5-5-5-5-5-5-5-7-7-7-7-7-7-7-7-3-3-3-3-3-3-3-3-------|
A|--5-5-5-5-5-5-5-5-5-5-5-5-5-5-5-5-5-5-5-5-5-5-5-5-3-3-3-3-3-3-3-3-------|
D|--5-5-5-5-5-5-5-5-5-5-5-5-5-5-5-5-----------------3-3-3-3-3-3-3-3-------|

e|------------------------------------------------------------------------|
B|--5-5-5-5-5-5-5-5-----------------3-3-3-3-3-3-3-3-7-7-7-7-7-7-7-7-------|
G|--5-5-5-5-5-5-5-5-----------------3-3-3-3-3-3-3-3-7-7-7-7-7-7-7-7-------|
D|--5-5-5-5-5-5-5-5-1-1-1-1-1-1-1-1-3-3-3-3-3-3-3-3-7-7-7-7-7-7-7-7-------|
A|--3-3-3-3-3-3-3-3-1-1-1-1-1-1-1-1-1-1-1-1-1-1-1-1-5-5-5-5-5-5-5-5-------|
D|------------------1-1-1-1-1-1-1-1---------------------------------------|


Pre Chorus:
e|------------------------------------------------------------------------|
B|---------------7--7--7--7----------------8--8--8--8---------------------|
G|---------------7--7--7--7----------------8--8--8--8---------------------|
D|--5--5--5--5---7--7--7--7---3--3--3--3---8--8--8--8---------------------|
A|--5--5--5--5---5--5--5--5---3--3--3--3---6--6--6--6---------------------|
D|--5--5--5--5----------------3--3--3--3----------------------------------|


Chorus:                                x6, then play
e|--------------------------------------|---------------------------------|
B|--------------------------------------|---7--7--7-----------------------|
G|--------------------------------------|---7--7--7-----------------------|
D|--5--5-5-5-5--5-5-5-5--5-5-5-5-5-5-5--|---7--7--7-----------------------|
A|--5--5-5-5-3--3-3-3-1--1-1-1-5-5-5-5--|---5--5--5-----------------------|
D|--5--5-5-5-3--3-3-3-1--1-1-1-5-5-5-5--|---------------------------------|


Solo: x4, sounds like Ian uses a flanger effect here but I am not sure.
There are some variations with the pull offs at the end but I am too lazy to figure them 
out... It should work like this.
e|------------------------------------------------------------------------|
B|------------------------------------------------------------------------|
G|------------------------------------------------------------------------|
D|------------------------------------------------------------------------|
A|------------------------------------------------------------------------|
D|--0-0-0-0-0-3p0-0-0--7p-8p0-10p0-8p0-7p0-8~-----------------------------|



Verse:  x2
e|------------------------------------------------------------------------|
B|----------------------------------7-7-7-7-7-7-7-7-----------------------|
G|----------------------------------7-7-7-7-7-7-7-7-----------------------|
D|--5-5-5-5-5-5-5-5-5-5-5-5-5-5-5-5-7-7-7-7-7-7-7-7-3-3-3-3-3-3-3-3-------|
A|--5-5-5-5-5-5-5-5-5-5-5-5-5-5-5-5-5-5-5-5-5-5-5-5-3-3-3-3-3-3-3-3-------|
D|--5-5-5-5-5-5-5-5-5-5-5-5-5-5-5-5-----------------3-3-3-3-3-3-3-3-------|

e|------------------------------------------------------------------------|
B|--5-5-5-5-5-5-5-5-----------------3-3-3-3-3-3-3-3-7-7-7-7-7-7-7-7-------|
G|--5-5-5-5-5-5-5-5-----------------3-3-3-3-3-3-3-3-7-7-7-7-7-7-7-7-------|
D|--5-5-5-5-5-5-5-5-1-1-1-1-1-1-1-1-3-3-3-3-3-3-3-3-7-7-7-7-7-7-7-7-------|
A|--3-3-3-3-3-3-3-3-1-1-1-1-1-1-1-1-1-1-1-1-1-1-1-1-5-5-5-5-5-5-5-5-------|
D|------------------1-1-1-1-1-1-1-1---------------------------------------|


Pre Chorus:
e|------------------------------------------------------------------------|
B|---------------7--7--7--7----------------8--8--8--8---------------------|
G|---------------7--7--7--7----------------8--8--8--8---------------------|
D|--5--5--5--5---7--7--7--7---3--3--3--3---8--8--8--8---------------------|
A|--5--5--5--5---5--5--5--5---3--3--3--3---6--6--6--6---------------------|
D|--5--5--5--5----------------3--3--3--3----------------------------------|


Chorus:  x16
e|------------------------------------------------------------------------|
B|------------------------------------------------------------------------|
G|------------------------------------------------------------------------|
D|--5--5-5-5-5--5-5-5-5--5-5-5-5-5-5-5------------------------------------|
A|--5--5-5-5-3--3-3-3-1--1-1-1-5-5-5-5------------------------------------|
D|--5--5-5-5-3--3-3-3-1--1-1-1-5-5-5-5------------------------------------|


Outro: x2
e|------------------------------------------------------------------------|
B|-11--11-11-11-15--15-15-15-13--13-13-13-11-11-11-11---------------------|
G|------------------------------------------------------------------------|
D|-12--12-12-12-15--15-15-15-14--14-14-14-12-12-12-11---------------------|
A|-10--10-10-10-13--13-13-13-12--12-12-12-10-10-10-10---------------------|
D|------------------------------------------------------------------------|
Tap to rate this tab
# A B C D E F G H I J K L M N O P Q R S T U V W X Y Z