Song name
# A B C D E F G H I J K L M N O P Q R S T U V W X Y Z

Billy Talent - Viking Death March tab

-------------------------------------------------------------------------------
                           VIKING DEATH MARCH - Billy Talent
-------------------------------------------------------------------------------
Tabbed by: aRAGman

Hi! Here's my tab for Billy Talent's new song, Viking Death March.
And here's a link to the cover I did on YouTube. You might be able to get some of 
the chord positioning and timing right by watching it.

http://www.youtube.com/watch?v=ZxqUsayBLQg&feature=g-upl


Thanks, and I hope you enjoy!

Tuning: Drop D

INTRO
e|-------------------------------------------------------------------------|
B|-------------------------------------------------------------------------|
G|-------------------------------------------------------------------------|
D|--5---5--5-5-5----5---5--5-5-5----5---5--5-5-5-----5-5-5-5---------------|  x4
A|--x---x--x-x-x----x---x--x-x-x----x---x--x-x-x-----x-x-x-x---------------|
D|--5---5--5-5-5----3---3--3-3-3----1---1--1-1-1-----5-5-5-5---------------|

e|-------------------------------------------------------------------------|
B|-------------------------------------------------------------------------|
G|--7---7--7-7-7-----5---5--5-5-5----3---3--3-3-3----7-7-7-7---------------|
D|--5---5--5-5-5-----5---5--5-5-5----5---5--5-5-5----5-5-5-5---------------|  x3
A|--5---5--5-5-5-----3---3--3-3-3----1---1--1-1-1----5-5-5-5---------------|
D|--5---5--5-5-5-----3---3--3-3-3----1---1--1-1-1----5-5-5-5---------------|

e|-------------------------------------------------------------------------|
B|---------------------------------------------------4-4-4-----------------|
G|--7---7--7-7-7-----5---5--5-5-5----3---3--3-3-3----5-5-5-----------------|
D|--5---5--5-5-5-----5---5--5-5-5----5---5--5-5-5----5-5-5-----------------|  
A|--5---5--5-5-5-----3---3--3-3-3----1---1--1-1-1----3-3-3-----------------|
D|--5---5--5-5-5-----3---3--3-3-3----1---1--1-1-1--------------------------|


VERSE 1
e|-------------------------------------------------------------------------|
B|-------------------------------------------------------------------------|  
G|--7---7--7-7-7---7---7--7-7-7----7---7--7-7-7----7--7--7-7-7-------------|
D|--x---x--x-x-x---x---x--x-x-x----x---x--x-x-x----x--x--x-x-x-------------|
A|--5---5--5-5-5---5---5--5-5-5----5---5--5-5-5----5--5--5-5-5-------------|
D|--5---5--5-5-5---5---5--5-5-5----5---5--5-5-5----5--5--5-5-7-------------|

e|-------------------------------------------------------------------------|
B|-------------------------------------------------------------------------|
G|--7---7--7-7-7----7---7--7-7-7----5---5--5-5-5----5---5--5-5-5-----------|
D|--x---x--x-x-x----x---x--x-x-x----x---x--x-x-x----x---x--x-x-x-----------|
A|--5---5--5-5-5----5---5--5-5-5----3---3--3-3-3----3---3--3-3-3-----------|
D|--8---8--8-8-8----8---8--8-8-8----3---3--3-3-3----3---3--3-3-3-----------|

e|-------------------------------------------------------------------------|
B|--4---4--4-4-4----4---4--4-4-4-------------------------------------------|
G|--5---5--5-5-5----5---5--5-5-5----3---3--3-3-3----3---3--3-5-5-----------|
D|--5---5--5-5-5----5---5--5-5-5----x---x--x-x-x----x---x--x-x-x-----------|
A|--3---3--3-3-3----3---3--3-3-3----1---1--1-1-1----1---1--1-3-3-----------|
D|----------------------------------1---1--1-1-1----1---1--1-3-3-----------|

e|-----------------------------------3---3--3-3-3----3---3--3-3-3----------|
B|-----------------------------------2---2--2-2-2----2---2--2-2-2----------|
G|--7---7--7-7-7----7---7--7-7-7-----3---3--3-3-3----3---3--3-3-3----------|
D|--x---x--x-x-x----x---x--x-x-x-----0---0--0-0-0----0---0--0-0-0----------|
A|--5---5--5-5-5----5---5--5-5-5-------------------------------------------|
D|--5---5--5-5-5----5---5--5-7-8-------------------------------------------|

(Repeat Verse 1)

PRE-CHORUS
e|--------------------------------------------3--3--3--3-------------------|
B|--4--4--4--4----7--7--7--7----3--3--3--3----4--4--4--4-------------------|
G|--5--5--5--5----x--x--x--x----x--x--x--x----3--3--3--3-------------------|
D|--5--5--5--5----7--7--7--7----3--3--3--3----1--1--1--1-------------------|
A|--3--3--3--3----5--5--5--5----1--1--1--1----1--1--1--1-------------------|
D|--------------------------------------------1--1--1--1-------------------|


e|-------------------------------------------------------------------------|
B|-------------------------------------------------------------------------|
G|-------------------------------------------------------------------------|
D|--5---5--5-5-5----5---5--5-5-5----5---5--5-5-5-----5-5-5-5---------------|  x2
A|--x---x--x-x-x----x---x--x-x-x----x---x--x-x-x-----x-x-x-x---------------|
D|--5---5--5-5-5----3---3--3-3-3----1---1--1-1-1-----5-5-5-5---------------|


CHORUS
e|-------------------------------------------------------------------------|
B|-------------------------------------------------------------------------|
G|--7---7--7-7-7-----5---5--5-5-5----3---3--3-3-3----7-7-7-7---------------|
D|--5---5--5-5-5-----5---5--5-5-5----5---5--5-5-5----5-5-5-5---------------|  x3
A|--5---5--5-5-5-----3---3--3-3-3----1---1--1-1-1----5-5-5-5---------------|
D|--5---5--5-5-5-----3---3--3-3-3----1---1--1-1-1----5-5-5-5---------------|

e|-------------------------------------------------------------------------|
B|---------------------------------------------------4-4-4-----------------|
G|--7---7--7-7-7-----5---5--5-5-5----3---3--3-3-3----5-5-5-----------------|
D|--5---5--5-5-5-----5---5--5-5-5----5---5--5-5-5----5-5-5-----------------|  
A|--5---5--5-5-5-----3---3--3-3-3----1---1--1-1-1----3-3-3-----------------|
D|--5---5--5-5-5-----3---3--3-3-3----1---1--1-1-1--------------------------|


VERSE 2
e|-------------------------------------------------------------------------|
B|-------------------------------------------------------------------------|
G|--7---7--7-7-7---7---7--7-7-7----7---7--7-7-7----7--7--7-7-7-------------|
D|--x---x--x-x-x---x---x--x-x-x----x---x--x-x-x----x--x--x-x-x-------------|
A|--5---5--5-5-5---5---5--5-5-5----5---5--5-5-5----5--5--5-5-5-------------|
D|--5---5--5-5-5---5---5--5-5-5----5---5--5-5-5----5--5--5-5-7-------------|

e|-------------------------------------------------------------------------|
B|-------------------------------------------------------------------------|
G|--7---7--7-7-7----7---7--7-7-7----5---5--5-5-5----5---5--5-5-5-----------|
D|--x---x--x-x-x----x---x--x-x-x----x---x--x-x-x----x---x--x-x-x-----------|
A|--5---5--5-5-5----5---5--5-5-5----3---3--3-3-3----3---3--3-3-3-----------|
D|--8---8--8-8-8----8---8--8-8-8----3---3--3-3-3----3---3--3-3-3-----------|

e|-------------------------------------------------------------------------|
B|--4---4--4-4-4----4---4--4-4-4-------------------------------------------|
G|--5---5--5-5-5----5---5--5-5-5----3---3--3-3-3----3---3--3-5-5-----------|
D|--5---5--5-5-5----5---5--5-5-5----x---x--x-x-x----x---x--x-x-x-----------|
A|--3---3--3-3-3----3---3--3-3-3----1---1--1-1-1----1---1--1-3-3-----------|
D|----------------------------------1---1--1-1-1----1---1--1-3-3-----------|

e|-----------------------------------3---3--3-3-3----3---3--3-3-3----------|
B|-----------------------------------2---2--2-2-2----2---2--2-2-2----------|
G|--7---7--7-7-7----7---7--7-7-7-----3---3--3-3-3----3---3--3-3-3----------|
D|--x---x--x-x-x----x---x--x-x-x-----0---0--0-0-0----0---0--0-0-0----------|
A|--5---5--5-5-5----5---5--5-5-5-------------------------------------------|
D|--5---5--5-5-5----5---5--5-7-8-------------------------------------------|

(Repeat Verse 2)

PRE-CHORUS
e|--------------------------------------------3--3--3--3-------------------|
B|--4--4--4--4----7--7--7--7----3--3--3--3----4--4--4--4-------------------|
G|--5--5--5--5----x--x--x--x----x--x--x--x----3--3--3--3-------------------|
D|--5--5--5--5----7--7--7--7----3--3--3--3----1--1--1--1-------------------|
A|--3--3--3--3----5--5--5--5----1--1--1--1----1--1--1--1-------------------|
D|--------------------------------------------1--1--1--1-------------------|

e|-------------------------------------------------------------------------|
B|-------------------------------------------------------------------------|
G|-------------------------------------------------------------------------|
D|--5---5--5-5-5----5---5--5-5-5----5---5--5-5-5-----5-5-5-5---------------|  x2
A|--x---x--x-x-x----x---x--x-x-x----x---x--x-x-x-----x-x-x-x---------------|
D|--5---5--5-5-5----3---3--3-3-3----1---1--1-1-1-----5-5-5-5---------------|


CHORUS
e|-------------------------------------------------------------------------|
B|-------------------------------------------------------------------------|
G|--7---7--7-7-7-----5---5--5-5-5----3---3--3-3-3----7-7-7-7---------------|
D|--5---5--5-5-5-----5---5--5-5-5----5---5--5-5-5----5-5-5-5---------------|  x3
A|--5---5--5-5-5-----3---3--3-3-3----1---1--1-1-1----5-5-5-5---------------|
D|--5---5--5-5-5-----3---3--3-3-3----1---1--1-1-1----5-5-5-5---------------|

e|-------------------------------------------------------------------------|
B|-------------------------------------------------------------------------|
G|--7---7--7-7-7-----5---5--5-5-5----3---3--3-3-3--------------------------|
D|--5---5--5-5-5-----5---5--5-5-5----5---5--5-5-5--------------------------|  
A|--5---5--5-5-5-----3---3--3-3-3----1---1--1-1-1--------------------------|
D|--5---5--5-5-5-----3---3--3-3-3----1---1--1-1-1----5-5-5-5-7-8-----------|

BREAKDOWN/INTERLUDE/BRIDGE

e|-------------------------------------------------------------------------|
B|-------------------------------------------------------------------------|
G|-------------------------------------------------------------------------|
D|-------------------------------------------------------------------------| x3
A|-------------------------------------------------------------------------|
D|--0--0-0-0-0-4p0-0-0-0-0-7p0-0-10p0-0-8p0-0-0-7-8------------------------|

e|-------------------------------------------------------------------------|
B|-------------------------------------------------------------------------|
G|-------------------------------------------------------------------------|
D|-------------------------------------------------------------------------| 
A|-------------------------------------------------------------------------|
D|--0--0-0-0-0-4p0-0-0-0-0-7p0-10p0-7p0-8p0-0-0-7-8------------------------|

VERSE 3 (NOTE: DIFFERENT TO VERSE 1 & 2)
e|-------------------------------------------------------------------------|
B|-------------------------------------------------------------------------|
G|--7---7--7-7-7---7---7--7-7-7----7---7--7-7-7----7--7--9-9-9-------------|
D|--5---5--5-5-5---5---5--5-5-5----5---5--5-5-5----5--5--7-7-7-------------|
A|--5---5--5-5-5---5---5--5-5-5----5---5--5-5-5----5--5--7-7-7-------------|
D|--5---5--5-5-5---5---5--5-5-5----5---5--5-5-5----5--5--7-7-7-------------|

e|-------------------------------------------------------------------------|
B|-------------------------------------------------------------------------|
G|--10---10--10--10--10---7---7--7-7-7----5---5--5-5-5----5---5--5-5-5-----|
D|--8----8---8---8---8----8---8--8-8-8----3---3--3-3-3----3---3--3-3-3-----|
A|--8----8---8---8---8----8---8--8-8-8----3---3--3-3-3----3---3--3-3-3-----|
D|--8----8---8---8---8----8---8--8-8-8----3---3--3-3-3----3---3--3-3-3-----|

e|-------------------------------------------------------------------------|
B|--4---4--4-4-4----4---4--4-4-4-------------------------------------------|
G|--5---5--5-5-5----5---5--5-5-5----3---3--3-3-3----3---3--5-5-5-----------|
D|--5---5--5-5-5----5---5--5-5-5----1---1--1-1-1----1---1--3-3-3-----------|
A|--3---3--3-3-3----3---3--3-3-3----1---1--1-1-1----1---1--3-3-3-----------|
D|----------------------------------1---1--1-1-1----1---1--3-3-3-----------|

e|-----------------------------------3---3--3-3-3----3---3--3-3-3----------|
B|-----------------------------------2---2--2-2-2----2---2--2-2-2----------|
G|--7---7--7-7-7----7---7--7---------3---3--3-3-3----3---3--3-3-3----------|
D|--5---5--5-5-5----5---5--5-7-8-----0---0--0-0-0----0---0--0-0-0----------|
A|--5---5--5-5-5----5---5--5-7-8-----0---0--0-0-0----0---0--0-0-0----------|
D|--5---5--5-5-5----5---5--5-7-8-----0---0--0-0-0----0---0--0-0-0----------|

(Repeat Verse 3)

e|--------------------------------------------3--3--3--3-------------------|
B|--4--4--4--4----7--7--7--7----3--3--3--3----4--4--4--4-------------------|
G|--5--5--5--5----x--x--x--x----x--x--x--x----3--3--3--3-------------------|
D|--5--5--5--5----7--7--7--7----3--3--3--3----1--1--1--1-------------------|
A|--3--3--3--3----5--5--5--5----1--1--1--1----1--1--1--1-------------------|
D|--------------------------------------------1--1--1--1-------------------|

e|-------------------------------------------------------------------------|
B|-------------------------------------------------------------------------|
G|-------------------------------------------------------------------------|
D|--5---5--5-5-5----5---5--5-5-5----5---5--5-5-5-----5-5-5-5---------------|  x10
A|--x---x--x-x-x----x---x--x-x-x----x---x--x-x-x-----x-x-x-x---------------|
D|--5---5--5-5-5----3---3--3-3-3----1---1--1-1-1-----5-5-5-5---------------|

e|-------------------------------------------------------------------------|
B|-------------------------------------------------------------------------|
G|--7---7--7-7-7-----5---5--5-5-5----3---3--3-3-3----7-7-7-7---------------|
D|--5---5--5-5-5-----5---5--5-5-5----5---5--5-5-5----5-5-5-5---------------|  x7
A|--5---5--5-5-5-----3---3--3-3-3----1---1--1-1-1----5-5-5-5---------------|
D|--5---5--5-5-5-----3---3--3-3-3----1---1--1-1-1----5-5-5-5---------------|

OUTRO
e|-----------------------10---10--10-10-10---8---8--8-8-8------------------|
B|--11---11--11-11-11----x----x---x--x--x----x---x--x-x-x----11-11-11-11---|
G|--x----x---x--x--x-----x----x---x--x--x----x---x--x-x-x----x--x--x--x----|
D|--x----x---x--x--x-----x----x---x--x--x----x---x--x-x-x----x--x--x--x----|
A|--10---10--10-10-10----8----8---8--8--8----6---6--6-6-6----10-10-10-10---|
D|-------------------------------------------------------------------------|

e|-----------------------10---10--10-10-10---8---8--8-8-8------------------|
B|--11---11--11-11-11----x----x---x--x--x----x---x--x-x-x------------------|
G|--x----x---x--x--x-----x----x---x--x--x----x---x--x-x-x------------------|
D|--x----x---x--x--x-----x----x---x--x--x----x---x--x-x-x------------------|
A|--10---10--10-10-10----8----8---8--8--8----6---6--6-6-6------------------|
D|-----------------------------------------------------------5-5-5-5-------|



************************************

| /   slide up
| \   slide down
| h   hammer-on
| p   pull-off
| ~   vibrato
| +   harmonic
| x   Mute note
| b   Bend
| pb  Pre-bend
| br  Bend release
| pbr Pre-bend release
| brb Bend release bend

************************************
Tap to rate this tab
# A B C D E F G H I J K L M N O P Q R S T U V W X Y Z