Song name
# A B C D E F G H I J K L M N O P Q R S T U V W X Y Z

Billy Talent - Viking Death March tab

Viking Death March

INTRO: x4
e|-------------------------------------------------------------------------|
B|-------------------------------------------------------------------------|
G|-------------------------------------------------------------------------|
D|--5---5--5-5-5----5---5--5-5-5----5---5--5-5-5-----5-5-5-5---------------|
A|--x---x--x-x-x----x---x--x-x-x----x---x--x-x-x-----x-x-x-x---------------|
D|--5---5--5-5-5----3---3--3-3-3----1---1--1-1-1-----5-5-5-5---------------|


CHORUS
e|-------------------------------------------------------------------------|
B|-------------------------------------------------------------------------|
G|-------------------------------------------------------------------------|
D|--5---5--5-5-5----5---5--5-5-5----5---5--5-5-5-----5-5-5-5---------------| x3
A|--5---5--5-5-5----3---3--3-3-3----1---1--1-1-1-----5-5-5-5---------------|
D|--5---5--5-5-5----3---3--3-3-3----1---1--1-1-1-----5-5-5-5---------------|

e|-------------------------------------------------------------------------|
B|---------------------------------------------------4-4-4-----------------|
G|---------------------------------------------------5-5-5-----------------|
D|--5---5--5-5-5----5---5--5-5-5----5---5--5-5-5-----5-5-5-----------------|
A|--5---5--5-5-5----3---3--3-3-3----1---1--1-1-1-----3-3-3-----------------|
D|--5---5--5-5-5----3---3--3-3-3----1---1--1-1-1---------------------------|


VERSE: x2
e|-------------------------------------------------------------------------|
B|-------------------------------------------------------------------------|
G|-------------------------------------------------------------------------|
D|--5---5--5-5-5---5---5--5-5-5--5---5--5-5-5---5---5--5---5---------------|
A|--5---5--5-5-5---5---5--5-5-5--5---5--5-5-5---5---5--5---5---------------|
D|--5---5--5-5-5---5---5--5-5-5--5---5--5-5-5---5---5--7---7---------------|

e|-------------------------------------------------------------------------|
B|-------------------------------------------------------------------------|
G|-------------------------------------------------------------------------|
D|--8---8--8-8-8---8---8--8-8-8--3---3--3-3-3---3---3--3---3---------------|
A|--8---8--8-8-8---8---8--8-8-8--3---3--3-3-3---3---3--3---3---------------|
D|--8---8--8-8-8---8---8--8-8-8--3---3--3-3-3---3---3--5---5---------------|

e|-------------------------------------------------------------------------|
B|-------------------------------------------------------------------------|
G|--5---5--5-5-5---5---5--5-5-5--------------------------------------------|
D|--5---5--5-5-5---5---5--5-5-5---1---1--1-1-1---1---1--3---3--------------|
A|--3---3--3-3-3---3---3--3-3-3---1---1--1-1-1---1---1--3---3--------------|
D|--------------------------------1---1--1-1-1---1---1--3---3--------------|

e|-------------------------------------------------------------------------|
B|--------------------------------7---7--7-7-7---7---7--7-7-7--------------|
G|--------------------------------7---7--7-7-7---7---7--7-7-7--------------|
D|--5---5--5-5-5---5---5--5-5-5---7---7--7-7-7---7---7--7-7-7--------------|
A|--5---5--5-5-5---5---5--5-5-5---5---5--5-5-5---5---5--5-5-5--------------|
D|--5---5--5-5-5---5---5--5-5-5--------------------------------------------|


PRE-CHORUS:
e|------------------------------------------------3--3--3--3---------------|
B|--4--4--4--4----7--7--7--7----3--3--3--3--3--3--x--x--x--x---------------|
G|--5--5--5--5----x--x--x--x----x--x--x--x--x--x--3--3--3--3---------------|
D|--5--5--5--5----7--7--7--7----3--3--3--3--3--3--1--1--1--1---------------|
A|--3--3--0--3----5--5--0--5----1--1--0--1--1--0--1--1--1--1---------------|
D|------------------------------------------------1--1--1--1---------------|

INTRO: x2

CHORUS


VERSE: x2


PRE-CHORUS

INTRO x2

CHORUS


SOLO:
e|-------------------------------------------------------------------------|
B|-------------------------------------------------------------------------|
G|-------------------------------------------------------------------------|
D|-------------------------------------------------------------------------| x3
A|-------------------------------------------------------------------------|
D|--0---0--0-0-0--4p0-0--0-0-0--7p0-0--10p0-0--8p0-0-5-7-8-----------------|

e|-------------------------------------------------------------------------|
B|-------------------------------------------------------------------------|
G|-------------------------------------------------------------------------|
D|-------------------------------------------------------------------------| 
A|-------------------------------------------------------------------------|
D|--0---0--0-0-0--4p0-0--0-0-0--7p0-10p0-7p0-8p0--0-5-7-8------------------|


MODIFIED VERSE
e|-------------------------------------------------------------------------|
B|-------------------------------------------------------------------------|
G|-------------------------------------------------------------------------|
D|--5---5--5-5-5---5---5--5-5-5--5---5--5-5-5---5---5--5---5---------------|
A|--5---5--5-5-5---5---5--5-5-5--5---5--5-5-5---5---5--5---5---------------|
D|--5---5--5-5-5---5---5--5-5-5--5---5--5-5-5---5---5--7---7---------------|

e|-------------------------------------------------------------------------|
B|-------------------------------------------------------------------------|
G|-------------------------------------------------------------------------|
D|--8---8--8-8-8---8---8--8-8-8--3---3--3-3-3---3---3--3---3---------------|
A|--8---8--8-8-8---8---8--8-8-8--3---3--3-3-3---3---3--3---3---------------|
D|--8---8--8-8-8---8---8--8-8-8--3---3--3-3-3---3---3--5---5---------------|

e|-------------------------------------------------------------------------|
B|--4---4--4-4-4---4---4--4-4-4---4---4--4-4-4---4---4---------------------|
G|--5---5--5-5-5---5---5--5-5-5---3---3--3-3-3---3---3--5---5--------------|
D|--5---5--5-5-5---5---5--5-5-5---1---1--1-1-1---1---1--3---3--------------|
A|--3---3--3-3-3---3---3--3-3-3---1---1--1-1-1---1---1--3---3--------------|
D|--------------------------------1---1--1-1-1---1---1--3---3--------------|

e|-------------------------------------------------------------------------|
B|--------------------------------7---7--7-7-7---7---7--7-7-7--------------|
G|--------------------------------7---7--7-7-7---7---7--7-7-7--------------|
D|--5---5--5-5-5---5---5--5-5-5---7---7--7-7-7---7---7--7-7-7--------------|
A|--5---5--5-5-5---5---5--5-5-5---5---5--5-5-5---5---5--5-5-5--------------|
D|--5---5--5-5-5---5---5--5-5-5--------------------------------------------|


e|-------------------------------------------------------------------------|
B|-------------------------------------------------------------------------|
G|-------------------------------------------------------------------------|
D|--5---5--5-5-5---5---5--5-5-5--5---5--5-5-5---5---5--5---5---------------|
A|--5---5--5-5-5---5---5--5-5-5--5---5--5-5-5---5---5--5---5---------------|
D|--5---5--5-5-5---5---5--5-5-5--5---5--5-5-5---5---5--7---7---------------|

e|-------------------------------------------------------------------------|
B|-------------------------------------------------------------------------|
G|-------------------------------------------------------------------------|
D|--8---8--8-8-8---8---8--8-8-8--3---3--3-3-3---3---3--3---3---------------|
A|--8---8--8-8-8---8---8--8-8-8--3---3--3-3-3---3---3--3---3---------------|
D|--8---8--8-8-8---8---8--8-8-8--3---3--3-3-3---3---3--5---5---------------|

e|-------------------------------------------------------------------------|
B|--4---4--4-4-4---4---4--4-4-4---4---4--4-4-4---4---4--6---6--------------|
G|--5---5--5-5-5---5---5--5-5-5---3---3--3-3-3---3---3--5---5--------------|
D|--5---5--5-5-5---5---5--5-5-5---1---1--1-1-1---1---1--3---3--------------|
A|--3---3--3-3-3---3---3--3-3-3---1---1--1-1-1---1---1--3---3--------------|
D|--------------------------------1---1--1-1-1---1---1--3---3--------------|

e|-------------------------------------------------------------------------|
B|--8---8--8-8-8---8---8--8-8-8---7---7--7-7-7---7---7--7-7-7--------------|
G|--7---7--7-7-7---7---7--7-7-7---7---7--7-7-7---7---7--7-7-7--------------|
D|--5---5--5-5-5---5---5--5-5-5---7---7--7-7-7---7---7--7-7-7--------------|
A|--5---5--5-5-5---5---5--5-5-5---5---5--5-5-5---5---5--5-5-5--------------|
D|--5---5--5-5-5---5---5--5-5-5--------------------------------------------|


PRE-CHORUS

INTRO x10

OUTRO
e|-------------------------------------------------------------------------|
B|-------------------------------------------------------------------------|
G|-------------------------------------------------------------------------|
D|--5---5--5-5-5----5---5--5-5-5----5---5--5-5-5-----5-5-5-5---------------| x8
A|--5---5--5-5-5----3---3--3-3-3----1---1--1-1-1-----5-5-5-5---------------|
D|--5---5--5-5-5----3---3--3-3-3----1---1--1-1-1-----5-5-5-5---------------|

e|------------------10--10-101010---8---8--8-8-8---------------------------|
B|--11--11-111111---10--10-101010---8---8--8-8-8-----11111111--------------|
G|--12--12-121212------------------------------------12121212--------------|
D|-------------------------------------------------------------------------| 
A|--10--10-101010---8---8--8-8-8----6---6--6-6-6-----10101010--------------|
D|-------------------------------------------------------------------------|

e|------------------10--10-101010---8---8--8-8-8---------------------------|
B|--11--11-111111---10--10-101010---8---8--8-8-8---------------------------|
G|--12--12-121212----------------------------------------------------------|
D|---------------------------------------------------5-5-5-5---------------| 
A|--10--10-101010---8---8--8-8-8----6---6--6-6-6-----5-5-5-5---------------|
D|---------------------------------------------------5-5-5-5---------------|
Tap to rate this tab
# A B C D E F G H I J K L M N O P Q R S T U V W X Y Z