Song name
# A B C D E F G H I J K L M N O P Q R S T U V W X Y Z

Billy Talent - Surprise Surprise tab

Surprise Surprise from Dead Silence

Used these two video to get this so have a look for phrasing etc:

http://www.youtube.com/watch?v=6JyaSFNisPw&feature=plcp

http://www.youtube.com/watch?v=FuFMmbajuqQ&feature=plcp

Main Riff

e|-------------------------------------|
B|-------------------------------------|
G|-------------------------------------|
D|-------------------------------------|
A|-0--0--0--0--0-----------------------|
D|-0--0--0--0--0--3--5--6--(x4-times)--|

e|--------------------------------------------|
B|--------------------------------------------|
G|-------------------------5-5-5-5-5----------|
D|-------------------------5-5-5-5-5----------|
A|-0--0--0--0--0--------5--3-3-3-3-3----------|
D|-0--0--0--0--0--5--6----------------6--5--3-|

e|-------------------------------------|
B|-------------------------------------|
G|-------------------------------------|
D|-------------------------------------|
A|-0--0--0--0--0-----------------------|
D|-0--0--0--0--0--3--5--6--(x2-times)--|

e|--------------------------------------------|
B|--------------------------------------------|
G|-------------------------5-5-5-5-5----------|
D|-------------------------5-5-5-5-5----------|
A|-0--0--0--0--0--------5--3-3-3-3-3----------|
D|-0--0--0--0--0--5--6----------------6--5--3-|

verses

e|--5--5--5---------------------------5--5--5--|
B|--6--6--6----6--6--6----10-10-10----6--6--6--|
G|--7--7--7----5--5--5----9--9--9-----7--7--7--|
D|--7--7--7----3--3--3----7--7--7-----7--7--7--|
A|--5--5--5----3--3--3----7--7--7-----5--5--5--|
D|---------------------------------------------|

pre chorus

e|---------------------------------------------|
B|---------------------------------------------|
G|---------------------------------------------|
D|---------------------------------------------|
A|-5-5-5-5-5-5-5-5-0-0-0-0-0-0-0-0-------------|
D|-5-5-5-5-5-5-5-5-0-0-0-0-0-0-0-0-(x3 times)--|

e|-------------------------------------|
B|-------------------------------------|
G|-5-5-5-5-5-5-5-5--2-2-2-2-2-2-2-2----|
D|-5-5-5-5-5-5-5-5--2-2-2-2-2-2-2-2----|
A|-3-3-3-3-3-3-3-3--0-0-0-0-0-0-0-0----|
D|-------------------------------------|

chorus


e|------------------------------------------------------|
B|---------------------------------------------3--------|
G|-7-7-7-7--10---5-5-5-5--10---2-2-2-2---------2--------|
D|-7-7-7-7--10---5-5-5-5--10---2-2-2-2---------0--------|
A|-5-5-5-5--8----3-3-3-3--8----0-0-0-0--0h3--0-0------3-|
D|--------------------------------------0h3--0-0--3h5---|

e|------------------------------------------------------------|
B|------------------------------------------------------------|
G|-7-7-7-7--10---5-5-5-5--10---2-2-2-2------------------------|
D|-7-7-7-7--10---5-5-5-5--10---2-2-2-2------------------------|
A|-5-5-5-5--8----3-3-3-3--8----0-0-0-0--0h3--5-5-5-5----------|
D|--------------------------------------0h3--5-5-5-5-5-6-5-3--|


back to main riff

Solo

e|-------------------------------------------------------------------------|
B|-------------------------------------------------------------------------|
G|------10-12b14-----------------14r12-10----------------10-------------7--|
D|10/12-----------------------------------12-------10/12----12---7\5p0-----|
A|---------(very quick bend)-----(quick release)---------------------------|
D|-------------------------------------------------------------------------|

e|------------------------------------------------------------------------|
B|---------------------------------------------13-13-13-10-13-10----------|
G|------10-12b14--14r12-10------------10-------12b14-12-10-12-10----------|
D|10/12---------------------12--10/12----12----------------------12p10h12-|
A|------------------------------------------------------------------------|
D|------------------------------------------------------------------------|
Tap to rate this tab
 
# A B C D E F G H I J K L M N O P Q R S T U V W X Y Z