Song name
# A B C D E F G H I J K L M N O P Q R S T U V W X Y Z

Billy Talent - Hanging By A Thread tab

Tuning: Drop D

e|---------------------------------------------------------------------------|
B|-------------12--10--------------------------------------7-7-8-10----------|
G|--7-7-9-9-11---------11-----------------------12--11--9---7-7-7------------|
D|---9-9-9-9-9---9---9----9----9----11--11--12-------------------------------|
A|--------------------------10---10---10--10--10--10--10---------------------|
D|---------------------------------------------------------------------------|

e|---------------------------------------------------------------------------|
B|----5----------------------------------------------------------------------|
G|-6-----7--6--4----4---6---7--4---4---4-------------------------------------|
D|---7-7--7-------5---5---5------4---4---------------------------------------|
A|---------------------------------------------------------------------------|
D|---------------------------------------------------------------------------|

Enjoy :)
Tap to rate this tab
# A B C D E F G H I J K L M N O P Q R S T U V W X Y Z