Song name
# A B C D E F G H I J K L M N O P Q R S T U V W X Y Z

Billy Talent - Surprise Surprise tab

-------------------------------------------------------------------------------
                             SURPRISE SURPRISE - Billy Talent
-------------------------------------------------------------------------------
Tabbed by: aRAGman

Tuning: Drop D

Hi, here's my tab for Surprise Surprise.
This is me playing a guitar cover of it, it might be able to help you if you need it:
http://www.youtube.com/watch?v=qH0x_041IvY
Thanks!


INTRO 
E |----------------------------|----------------------------|
B |----------------------------|----------------------------|
G |----------------------------|----------------------------|
D |--0--0--0--0--0-------------|--0--0--0--0--0-------------|
A |--0--0--0--0--0-------------|--0--0--0--0--0-------------|
D |--0--0--0--0--0--3--5--6----|--0--0--0--0--0--3--5--6----|
        PM-------|                PM----------|

INTRO BAND
----------------------------|----------------------------|
----------------------------|----------------------------|
----------------------------|----------------------------|
--7--7--7--7--7-------------|--7--7--7--7--7-------------|
--0--0--0--0--0-------------|--0--0--0--0--0-------------|
--0--0--0--0--0--3--5--6----|--0--0--0--0--0--3--5--6----|


----------------------------|----------------------------|
----------------------------|----------------------------|
----------------------------|----------------------------|
--7--7--7--7--7--------7----|--5--5--5--5--5-------------|
--0--0--0--0--0--------5----|--3--3--3--3--3-------------|
--0--0--0--0--0--6--7-------|-----------------5b6r--3----|
                        

----------------------------|----------------------------|
----------------------------|----------------------------|
----------------------------|----------------------------|
--7--7--7--7--7-------------|--7--7--7--7--7-------------|
--0--0--0--0--0-------------|--0--0--0--0--0-------------|
--0--0--0--0--0--3--5--6----|--0--0--0--0--0--3--5--6----|


----------------------------|----------------------------|
----------------------------|----------------------------|
----------------------------|----------------------------|
--7--7--7--7--7--------7----|--5--5--5--5--5-------------|
--0--0--0--0--0--------5----|--3--3--3--3--3-------------|
--0--0--0--0--0--6--7-------|-----------------5b6r--3----|
                                

VERSE
----------------------------|----------------------------|
-----6--6--6--6-------------|-----6--6--6--6-------------|
-----5--5--5--5-------------|-----5--5--5--5-------------|
----------------------------|----------------------------|
-----5--5--5--5-------------|-----3--3--3--3-------------|
----------------------------|----------------------------|


----------------------------|----------------------------|
-----10-10-10-10------------|-----6--6--6--6-------------|
-----9--9--9--9-------------|-----5--5--5--5-------------|
-----10-10-10-10------------|-----0--0--0--0-------------|
-----0--0--0--0-------------|-----0--0--0--0-------------|
----------------------------|-----0--0--0--0-------------|


----------------------------|----------------------------|
-----6--6--6--6-------------|-----6--6--6--6-------------|
-----5--5--5--5-------------|-----5--5--5--5-------------|
----------------------------|----------------------------|
-----5--5--5--5-------------|-----3--3--3--3-------------|
----------------------------|----------------------------|


----------------------------|----------------------------|
-----10-10-10-10------------|-----6--6--6--6-------------|
-----9--9--9--9-------------|-----5--5--5--5-------------|
-----10-10-10-10------------|-----0--0--0--0-------------|
-----0--0--0--0-------------|-----0--0--0--0--0--3--4----|
----------------------------|-----0--0--0--0--0--3--4----|


PRECHORUS
----------------------------|----------------------------|
----------------------------|----------------------------|
----------------------------|----------------------------|
----------------------------|--7--7--7--7--7--7--7--7----|
--5--5--5--5--5--5--5--5----|--5--5--5--5--5--5--5--5----|
--5--5--5--5--5--5--5--5----|--0--0--0--0--0--0--0--0----|
     PM----------------------------------------------------

----------------------------|----------------------------|
----------------------------|----------------------------|
----------------------------|----------------------------|
----------------------------|--7--7--7--7--7--7--7--7----|
--5--5--5--5--5--5--5--5----|--5--5--5--5--5--5--5--5----|
--5--5--5--5--5--5--5--5----|--0--0--0--0--0--0--0--0----|
PM--------------------------------------------------------

----------------------------|----------------------------|
----------------------------|----------------------------|
----------------------------|----------------------------|
----------------------------|--7--7--7--7--7--7--7--7----|
--5--5--5--5--5--5--5--5----|--5--5--5--5--5--5--5--5----|
--5--5--5--5--5--5--5--5----|--0--0--0--0--0--0--0--0----|
PM---------------------------------------------------|


----------------------------|----------------------------|
--5--5--5--5--5--5--5--5----|--2--2--2--2--2-------------|
--5--5--5--5--5--5--5--5----|--2--2--2--2--2-------------|
--5--5--5--5--5--5--5--5----|--2--2--2--2--2--------5----|
--3--3--3--3--3--3--3--3----|--0--0--0--0--0--5--7--3----|
----------------------------|-----------------5--7-------|


CHORUS
----------------------------|----------------------------|
--7--7--7--7--7-----10------|--5--5--5--5--5-----10------|
--7--7--7--7--7-----10------|--5--5--5--5--5-----10------|
--7--7--7--7--7-----10------|--5--5--5--5--5-----10------|
--5--5--5--5--5--0--8-------|--3--3--3--3--3--0--8-------|
----------------------------|----------------------------|


----------------------------|----------------------------|
--2--2--2--2--2-------------|--3-----3-----3-------------|
--2--2--2--2--2-------------|--2-----2-----2-------------|
--2--2--2--2--2-----3-------|--0-----0-----0--------5----|
--0--0--0--0--0--0--3-------|--0-----0-----0--5--7--3----|
-----------------0--3-------|--0-----0-----0--5--7-------|


----------------------------|----------------------------|
--7--7--7--7--7-----10------|--5--5--5--5--5-----10------|
--7--7--7--7--7-----10------|--5--5--5--5--5-----10------|
--7--7--7--7--7-----10------|--5--5--5--5--5-----10------|
--5--5--5--5--5--0--8-------|--3--3--3--3--3--0--8-------|
----------------------------|----------------------------|


----------------------------|----------------------------|
--2--2--2--2--2-------------|----------------------------|
--2--2--2--2--2-------------|----------------------------|
--2--2--2--2--2-----3-------|--5--5--5--5----------------|
--0--0--0--0--0--0--3-------|--5--5--5--5----------------|
-----------------0--3-------|--5--5--5--5--5--6--5--3----|
                       PM----|

CHORUS OUTRO
----------------------------|----------------------------|
----------------------------|----------------------------|
----------------------------|----------------------------|
--7--7--7--7--7-------------|--7--7--7--7--7-------------|
--0--0--0--0--0-------------|--0--0--0--0--0-------------|
--0--0--0--0--0--3--5--6----|--0--0--0--0--0--3--5--6----|


----------------------------|----------------------------|
----------------------------|----------------------------|
----------------------------|----------------------------|
--7--7--7--7--7--------7----|--5--5--5--5--5-------------|
--0--0--0--0--0--------5----|--3--3--3--3--3-------------|
--0--0--0--0--0--6--7-------|-----------------5b6r--3----|
                                

VERSE 2
----------------------------|----------------------------|
-----6--6--6--6-------------|-----6--6--6--6-------------|
-----5--5--5--5-------------|-----5--5--5--5-------------|
----------------------------|----------------------------|
-----5--5--5--5-------------|-----3--3--3--3-------------|
----------------------------|----------------------------|


----------------------------|----------------------------|
-----10-10-10-10------------|-----6--6--6--6-------------|
-----9--9--9--9-------------|-----5--5--5--5-------------|
-----10-10-10-10------------|-----0--0--0--0-------------|
-----0--0--0--0-------------|-----0--0--0--0-------------|
----------------------------|-----0--0--0--0-------------|


----------------------------|----------------------------|
-----6--6--6--6-------------|-----6--6--6--6-------------|
-----5--5--5--5-------------|-----5--5--5--5-------------|
----------------------------|----------------------------|
-----5--5--5--5-------------|-----3--3--3--3-------------|
----------------------------|----------------------------|


----------------------------|----------------------------|
-----10-10-10-10------------|-----6--6--6--6-----6--6----|
-----9--9--9--9-------------|-----5--5--5--5-----5--5----|
-----10-10-10-10------------|-----0--0--0--0-----0--0----|
-----0--0--0--0-------------|-----0--0--0--0-----0--0----|
----------------------------|-----0--0--0--0-----0--0----|


--------------------10------|--------------------8-------|
-----6--6--6--6-----10------|-----5--5--5--5-----8-------|
-----5--5--5--5-----10------|-----5--5--5--5-----9-------|
----------------------------|----------------------------|
-----5--5--5--5-------------|-----3--3--3--3-------------|
----------------------------|----------------------------|


--------------------5-------|----------------------------|
-----1--1--1--1-----5-------|-----6--6--6--6-----6--6----|
-----2--2--2--2-----5-------|-----5--5--5--5-----5--5----|
-----2--2--2--2-------------|-----0--0--0--0-----0--0----|
-----0--0--0--0-------------|-----0--0--0--0-----0--0----|
----------------------------|-----0--0--0--0-----0--0----|


--------------------10------|--------------------8-------|
-----6--6--6--6-----10------|-----5--5--5--5-----8-------|
-----5--5--5--5-----10------|-----5--5--5--5-----9-------|
----------------------------|----------------------------|
-----5--5--5--5-------------|-----3--3--3--3-------------|
----------------------------|----------------------------|


--------------------5-------|----------------------------|
-----1--1--1--1-----5-------|-----6--6--6--6-------------|
-----2--2--2--2-----5-------|-----5--5--5--5-------------|
-----2--2--2--2-------------|-----0--0--0--0-------------|
-----0--0--0--0-------------|-----0--0--0--0--0--3--4----|
----------------------------|-----0--0--0--0--0--3--4----|

PRECHORUS
----------------------------|----------------------------|
----------------------------|----------------------------|
----------------------------|----------------------------|
----------------------------|--7--7--7--7--7--7--7--7----|
--5--5--5--5--5--5--5--5----|--5--5--5--5--5--5--5--5----|
--5--5--5--5--5--5--5--5----|--0--0--0--0--0--0--0--0----|
     PM---------------------------------------------------

----------------------------|----------------------------|
----------------------------|----------------------------|
----------------------------|----------------------------|
----------------------------|--7--7--7--7--7--7--7--7----|
--5--5--5--5--5--5--5--5----|--5--5--5--5--5--5--5--5----|
--5--5--5--5--5--5--5--5----|--0--0--0--0--0--0--0--0----|
PM--------------------------------------------------------

----------------------------|----------------------------|
----------------------------|----------------------------|
----------------------------|----------------------------|
----------------------------|--7--7--7--7--7--7--7--7----|
--5--5--5--5--5--5--5--5----|--5--5--5--5--5--5--5--5----|
--5--5--5--5--5--5--5--5----|--0--0--0--0--0--0--0--0----|
PM--------------------------------------------------|

----------------------------|----------------------------|
--5--5--5--5--5--5--5--5----|--2--2--2--2--2-------------|
--5--5--5--5--5--5--5--5----|--2--2--2--2--2-------------|
--5--5--5--5--5--5--5--5----|--2--2--2--2--2--------5----|
--3--3--3--3--3--3--3--3----|--0--0--0--0--0--5--7--3----|
----------------------------|-----------------5--7-------|


CHORUS
----------------------------|----------------------------|
--7--7--7--7--7-----10------|--5--5--5--5--5-----10------|
--7--7--7--7--7-----10------|--5--5--5--5--5-----10------|
--7--7--7--7--7-----10------|--5--5--5--5--5-----10------|
--5--5--5--5--5--0--8-------|--3--3--3--3--3--0--8-------|
----------------------------|----------------------------|


----------------------------|----------------------------|
--2--2--2--2--2-------------|--3-----3-----3-------------|
--2--2--2--2--2-------------|--2-----2-----2-------------|
--2--2--2--2--2-----3-------|--0-----0-----0--------5----|
--0--0--0--0--0--0--3-------|--0-----0-----0--5--7--3----|
-----------------0--3-------|--0-----0-----0--5--7-------|


----------------------------|----------------------------|
--7--7--7--7--7-----10------|--5--5--5--5--5-----10------|
--7--7--7--7--7-----10------|--5--5--5--5--5-----10------|
--7--7--7--7--7-----10------|--5--5--5--5--5-----10------|
--5--5--5--5--5--0--8-------|--3--3--3--3--3--0--8-------|
----------------------------|----------------------------|


----------------------------|----------------------------|
--2--2--2--2--2-------------|--3-----3-----3-------------|
--2--2--2--2--2-------------|--2-----2-----2-------------|
--2--2--2--2--2-----3-------|--0-----0-----0--------5----|
--0--0--0--0--0--0--3-------|--0-----0-----0--5--7--3----|
-----------------0--3-------|--0-----0-----0--5--7-------|


----------------------------|----------------------------|
--7--7--7--7--7-----10------|--5--5--5--5--5-----10------|
--7--7--7--7--7-----10------|--5--5--5--5--5-----10------|
--7--7--7--7--7-----10------|--5--5--5--5--5-----10------|
--5--5--5--5--5--0--8-------|--3--3--3--3--3--0--8-------|
----------------------------|----------------------------|


----------------------------|----------------------------|
--2--2--2--2--2-------------|--3-----3-----3-------------|
--2--2--2--2--2-------------|--2-----2-----2-------------|
--2--2--2--2--2-----3-------|--0-----0-----0--------5----|
--0--0--0--0--0--0--3-------|--0-----0-----0--5--7--3----|
-----------------0--3-------|--0-----0-----0--5--7-------|


----------------------------|----------------------------|
--7--7--7--7--7-----10------|--5--5--5--5--5-----10------|
--7--7--7--7--7-----10------|--5--5--5--5--5-----10------|
--7--7--7--7--7-----10------|--5--5--5--5--5-----10------|
--5--5--5--5--5--0--8-------|--3--3--3--3--3--0--8-------|
----------------------------|----------------------------|


----------------------------|----------------------------|
--2--2--2--2--2-------------|----------------------------|
--2--2--2--2--2-------------|----------------------------|
--2--2--2--2--2-----3-------|--5--5--5--5----------------|
--0--0--0--0--0--0--3-------|--5--5--5--5----------------|
-----------------0--3-------|--5--5--5--5--5--6--5--3----|
                       PM----|

SOLO
Lead
Personally, I play it up on the 12th fret. But Ian plays it this way. 


         |Short bend
---------------------------------------------------------|
-------6-8b10--10pbr8--6-------------------5-------------|
--5h7--------------------7------------5h7-----7----------|
---------------------------------------------------------|
---------------------------------------------------------|
---------------------------------------------------------|

                                       |longer bend
---------------------------------------------------------|
----------1h3------------------------6-8b10--10pbr8--6---|
--2p0----------------------------5h7-------------------7-|
------3--------------------------------------------------|
---------------------------------------------------------|
---------------------------------------------------------|

---------------------------------------------------------|
------------------12--12b13--12--10--12--10--------------|
----------10------12--12b13--12--10--12--10--------------|
----10h12----12-------------------------------12p10--12--|
---------------------------------------------------------|
---------------------------------------------------------|



Rhythm
----------------------------|----------------------------|
----------------------------|----------------------------|
----------------------------|----------------------------|
--0--0--0--0--0--3--5--6----|--7--7--7--7--7--7--6--6----|
--0--0--0--0--0--3--5--6----|--7--7--7--7--7--7--6--6----|
--0--0--0--0--0--3--5--6----|--7--7--7--7--7--7--6--6----|
PM---------------------------------------------------------

----------------------------|----------------------------|
----------------------------|----------------------------|
----------------------------|----------------------------|
--5--5--5--5--5--6--5--3----|--0--0--0--0--0--5--6--7----|
--5--5--5--5--5--6--5--3----|--0--0--0--0--0--3--4--5----|
--5--5--5--5--5--6--5--3----|--0--0--0--0--0-------------|
PM------------------------------------------|

----------------------------|----------------------------|
----------------------------|----------------------------|
----------------------------|----------------------------|
--0--0--0--0--0--3--5--6----|--7--7--7--7--7--7--6--6----|
--0--0--0--0--0--3--5--6----|--7--7--7--7--7--7--6--6----|
--0--0--0--0--0--3--5--6----|--7--7--7--7--7--7--6--6----|
PM---------------------------------------------------------

----------------------------|----------------------------|
----------------------------|----------------------------|
----------------------------|----------------------------|
--5--5--5--5--5--6--5--3----|--0--0--0--0--0-------------|
--5--5--5--5--5--6--5--3----|--0--0--0--0--0--0--3--4----|
--5--5--5--5--5--6--5--3----|--0--0--0--0--0--0--3--4----|
PM------------------------------------------|

PRECHORUS
----------------------------|----------------------------|
----------------------------|----------------------------|
----------------------------|----------------------------|
----------------------------|--7--7--7--7--7--7--7--7----|
--5--5--5--5--5--5--5--5----|--5--5--5--5--5--5--5--5----|
--5--5--5--5--5--5--5--5----|--0--0--0--0--0--0--0--0----|
    PM-----------------------------------------------------

----------------------------|----------------------------|
----------------------------|----------------------------|
----------------------------|----------------------------|
----------------------------|--7--7--7--7--7--7--7--7----|
--5--5--5--5--5--5--5--5----|--5--5--5--5--5--5--5--5----|
--5--5--5--5--5--5--5--5----|--0--0--0--0--0--0--0--0----|
PM--------------------------------------------------------

----------------------------|----------------------------|
----------------------------|----------------------------|
----------------------------|----------------------------|
----------------------------|--7--7--7--7--7--7--7--7----|
--5--5--5--5--5--5--5--5----|--5--5--5--5--5--5--5--5----|
--5--5--5--5--5--5--5--5----|--0--0--0--0--0--0--0--0----|
PM----------------------------------------------------|

----------------------------|----------------------------|
--5--5--5--5--5--5--5--5----|--2--2--2--2--2-------------|
--5--5--5--5--5--5--5--5----|--2--2--2--2--2-------------|
--5--5--5--5--5--5--5--5----|--2--2--2--2--2--------5----|
--3--3--3--3--3--3--3--3----|--0--0--0--0--0--5--7--3----|
----------------------------|-----------------5--7-------|

CHORUS
----------------------------|----------------------------|
--7--7--7--7--7-----10------|--5--5--5--5--5-----10------|
--7--7--7--7--7-----10------|--5--5--5--5--5-----10------|
--7--7--7--7--7-----10------|--5--5--5--5--5-----10------|
--5--5--5--5--5--0--8-------|--3--3--3--3--3--0--8-------|
----------------------------|----------------------------|


----------------------------|----------------------------|
--2--2--2--2--2-------------|--3-----3-----3-------------|
--2--2--2--2--2-------------|--2-----2-----2-------------|
--2--2--2--2--2-----3-------|--0-----0-----0--------5----|
--0--0--0--0--0--0--3-------|--0-----0-----0--5--7--3----|
-----------------0--3-------|--0-----0-----0--5--7-------|


----------------------------|----------------------------|
--7--7--7--7--7-----10------|--5--5--5--5--5-----10------|
--7--7--7--7--7-----10------|--5--5--5--5--5-----10------|
--7--7--7--7--7-----10------|--5--5--5--5--5-----10------|
--5--5--5--5--5--0--8-------|--3--3--3--3--3--0--8-------|
----------------------------|----------------------------|


----------------------------|----------------------------|
--2--2--2--2--2-------------|--3-----3-----3-------------|
--2--2--2--2--2-------------|--2-----2-----2-------------|
--2--2--2--2--2-----3-------|--0-----0-----0--------5----|
--0--0--0--0--0--0--3-------|--0-----0-----0--5--7--3----|
-----------------0--3-------|--0-----0-----0--5--7-------|


----------------------------|----------------------------|
--7--7--7--7--7-----10------|--5--5--5--5--5-----10------|
--7--7--7--7--7-----10------|--5--5--5--5--5-----10------|
--7--7--7--7--7-----10------|--5--5--5--5--5-----10------|
--5--5--5--5--5--0--8-------|--3--3--3--3--3--0--8-------|
----------------------------|----------------------------|


----------------------------|----------------------------|
--2--2--2--2--2-------------|--3-----3-----3-------------|
--2--2--2--2--2-------------|--2-----2-----2-------------|
--2--2--2--2--2-----3-------|--0-----0-----0--------5----|
--0--0--0--0--0--0--3-------|--0-----0-----0--5--7--3----|
-----------------0--3-------|--0-----0-----0--5--7-------|


----------------------------|----------------------------|
--7--7--7--7--7-----10------|--5--5--5--5--5-----10------|
--7--7--7--7--7-----10------|--5--5--5--5--5-----10------|
--7--7--7--7--7-----10------|--5--5--5--5--5-----10------|
--5--5--5--5--5--0--8-------|--3--3--3--3--3--0--8-------|
----------------------------|----------------------------|


----------------------------|----------------------------|
--2--2--2--2--2-------------|----------------------------|
--2--2--2--2--2-------------|----------------------------|
--2--2--2--2--2-----3-------|--5--5--5--5----------------|
--0--0--0--0--0--0--3-------|--5--5--5--5----------------|
-----------------0--3-------|--5--5--5--5--5--6--5--3----|
                      PM------|


OUTRO
----------------------------|----------------------------|
----------------------------|----------------------------|
----------------------------|----------------------------|
--0--0--0--0--0-------------|--0--0--0--0--0-------------|
--0--0--0--0--0-------------|--0--0--0--0--0-------------|
--0--0--0--0--0--3--5--6----|--0--0--0--0--0--3--5--6----|
   PM----------|                     PM-----------|

----------------------------|----------------------------|
----------------------------|----------------------------|
--7--7--7--7--7-------------|--7--7--7--7--7-------------|
--5--5--5--5--5--3--5--6----|--5--5--5--5--5--3--5--6----|
--5--5--5--5--5--3--5--6----|--5--5--5--5--5--3--5--6----|
--0--0--0--0--0--3--5--6----|--0--0--0--0--0--3--5--6----|


----------------------------|-------||
----------------------------|-------||
----------------------------|-------||
--0--0--0--0--0--6--5--3----|--0----||
--0--0--0--0--0--6--5--3----|--0----||
--0--0--0--0--0--6--5--3----|--0----||


************************************

| /   slide up
| \   slide down
| h   hammer-on
| p   pull-off
| ~   vibrato
| +   harmonic
| x   Mute note
| b   Bend
| pb  Pre-bend
| br  Bend release
| pbr Pre-bend release
| brb Bend release bend

************************************
Tap to rate this tab
# A B C D E F G H I J K L M N O P Q R S T U V W X Y Z