Song name
# A B C D E F G H I J K L M N O P Q R S T U V W X Y Z

Billy Talent - Swallowed Up By The Ocean tab

e-----------------------------------------------------------------------|
B--6-6-6-8-8-8-10-10-8-8-8-8-8-8-8-8-6-6-6-8-8-8-10-10-6-6-6-6-6-6-6-6--|
G--7-7-7-7-7-7-7--7--7-7-7-7-7-7-7-7-7-7-7-7-7-7-7--7--5-5-5-5-5-5-5-5--|
D-----------------------------------------------------------------------|
A-----------------------------------------------------------------------|
D-----------------------------------------------------------------------|


e----------------------------------------------------------------------|
B--5-5-5-6-6-6-8-8-6-6-6-5-5-5-6-6-6-3-3-3-3-3-3-3-3-3-3-3-3-3-3-------|
G--5-5-5-5-5-5-5-5-7-7-7-7-7-7-7-7-7-2-2-2-2-2-2-2-2-2-2-2-2-2-2-------|
D----------------------------------------------------------------------|
A----------------------------------------------------------------------|
D----------------------------------------------------------------------|
Tap to rate this tab
# A B C D E F G H I J K L M N O P Q R S T U V W X Y Z