Song name
# A B C D E F G H I J K L M N O P Q R S T U V W X Y Z

Billy Talent - Lonely Road To Absolution tab

E|------|
B|----3-|
G|------|     x4
D|---0--|
A|--2---|
E|-3----|
                        \
E|--------------------|  \
B|--------------------|   \
G|--------------------|    \
D|-5-7-8-10-12-10-8-7-| x2  \
A|-5-7-8-10-12-10-8-7-|      \
E|-3-5-6-8--10-8--6-5-|       \
                               ===== try strumming each chord twice for
E|----------|                 /        better timing
B|----------|                /
G|-8--------|               /
D|-8-8-10-5-|              /
A|-6-8-10-5-|             /
E|---6-8--3-|            /

E|-----------------------------|
B|-----------------------------|
G|-----------------------------| x2 match the notes with the lyrics
D|------5-3--------------------|
A|-3-5-6---5-6-3-5-1-3-6-5-1-3-|
E|-----------------------------|

E|--------------------|  
B|--------------------| 
G|--------------------|
D|-5-7-8-10-12-10-8-7-|  x2 try strumming each chord twice
A|-5-7-8-10-12-10-8-7-|    
E|-3-5-6-8--10-8--6-5-| 

Optional harmonics NOT chords

E|-----------------|
B|-----------------|
G|-----------------|
D|-----------------|
A|-3-6-5-1-3-6-5-3-|
E|-3-6-5-1-3-6-5-3-|

This is how i play it and i really hope it helps

E-mail me at ieguarino@bell.net
Tap to rate this tab
 
# A B C D E F G H I J K L M N O P Q R S T U V W X Y Z