Song name
# A B C D E F G H I J K L M N O P Q R S T U V W X Y Z

Billy Talent - Try Honesty tab

Intro
E|-------------5---------------5-|
A|----5--------5------5--------5-|
D|-----6-------5-------6-------5-|
G|4-----7-6-7\4---4-----7-6-7\4--|
B|4-------0-------4-------0------|
E|4-------0-------4-------0------|

E|0-0---0-0-0-0-00-0-0---0-0-0-0-00--------------5-|
B|2-2---2-2-2-2-22-2-2---2-2-2-2-22-----5--------5-|
G|2-2---2-2-2-2-22-2-2---2-2-2-2-22------6-------5-|
D|0-0---0-0-0-0-00-2-2---2-2-2-2-22-4-----7-6-7\4--|
A|2-2---2-2-2-2-22-0-0---0-0-0-0-00-4-------0------|
D|----------------------------------4-------0------|

E|0-0---0-0-0-0-00-0-0---0-0-0-0-00--------------5-|
B|2-2---2-2-2-2-22-2-2---2-2-2-2-22-----5--------5-|
G|2-2---2-2-2-2-22-2-2---2-2-2-2-22------5-------5-|
D|0-0---0-0-0-0-00-2-2---2-2-2-2-22-4-----7-6-7\4--|
A|2-2---2-2-2-2-22-0-0---0-0-0-0-00-4-------0------|
D|----------------------------------4-------0------|

E|0-0---0-0-0-0-00-0-0---0-0-0-0-00--------------5---------------5-|
B|2-2---2-2-2-2-22-2-2---2-2-2-2-22-----5--------5------5--------5-|
G|2-2---2-2-2-2-22-2-2---2-2-2-2-22------6-------5-------6-------5-|
D|0-0---0-0-0-0-00-2-2---2-2-2-2-22-4-----7-6-7\4---4-----7-6-7\4--|
A|2-2---2-2-2-2-22-0-0---0-0-0-0-00-4-------0-------4-------0------|
D|----------------------------------4-------0-------4-------0------|

Verse
E|--------------------------------------------------------------|
B|--------------------------------------------------------------|
G|--------------------------------------------------------------|
D|4-----------------0--------------------4--------------------0-|
A|4-----------------0--------------------4--------------------0-|
D|4-----------------0--------------------4--------------------0-|
   Well I tripped   I fell down          Na- - - - - - - - - -ked

E|-----------------------------------------------------------------|
B|-----------------------------------------------------------------|
G|-----------------------------------------------------------------|
D|4-----------------0--------------------4--------------------0----|
A|4-----------------0--------------------4--------------------0----|
D|4-----------------0--------------------4--------------------0----|
   Well I scratched   My knees           The- - - - - - - -y  Bled

E|------------------------------------------------------------------|
B|------------------------------------------------------------------|
G|------------------------------------------------------------------|
D|4-----------------0--------------------4--------------------0-----|
A|4-----------------0--------------------4--------------------0-----|
D|4-----------------0--------------------4--------------------0-----|
    Sew up            My eyes            Ne- - - - - - - - -d No more

E|------------------------------------------------------------------|
B|------------------------------------------------------------------|
G|------------------------------------------------------------------|
D|4-----------------0--------------------4--------------------0-----|
A|4-----------------0--------------------4--------------------0-----|
D|4-----------------0--------------------4--------------------0-----|
   In our game        There is           No- - - - - - - - -  Score

Chorus
E|0--0----0-0-0-0-00--0---0------0--0-0-0-00--|
B|2--2----2-2-2-2-22--2---2------2--2-2-2-22--|
G|2--2----2-2-2-2-22--2---2------2--2-2-2-22--|
D|0--0----0-0-0-0-00--2---2------2--2-2-2-22--|
A|2--2----2-2-2-2-22--0---0------0--0-0-0-00--|
D|--------------------------------------------|
  Forgive me father   Why should ya bother

E|--------------------------------|
B|--------------------------------|
G|--------------------------------|
D|7-7-7-6-6-6-4-0-6-6-6-4-4-4-2-0-|
A|4-4-4-4-4-4-4-0-2-2-2-2-2-2-2-0-|
D|4-4-4-4-4-4-4-0-2-2-2-2-2-2-2-0-|
  TRY   HONESTY!  TRY   HONESTY!

E|0---0--0----0--0-0-00---0-0-----0---0--0-0-00--|
B|2---2--2----2--2-2-22---2-2-----2---2--2-2-22--|
G|2---2--2----2--2-2-22---2-2-----2---2--2-2-22--|
D|0---0--0----0--0-0-00---2-2-----2---2--2-2-22--|
A|2---2--2----2--2-2-22---0-0-----0---0--0-0-00--|
D|-----------------------------------------------|
  Hop in your dump truck  Reverse for good luck

E|--------------------------------|
B|--------------------------------|
G|--------------------------------|
D|7-7-7-6-6-6-4-0-6-6-6-4-4-4-2-0-|
A|4-4-4-4-4-4-4-0-2-2-2-2-2-2-2-0-|
D|4-4-4-4-4-4-4-0-2-2-2-2-2-2-2-0-|
  RIDE  OVER  ME! RIDE  OVER  ME!

E|---------------------------------------------------------|
B|---------------------------------------------------------|
G|---------------------------------------------------------|
D|4----------------0--------------------4----------------0-|
A|4----------------0--------------------4----------------0-|
D|4----------------0--------------------4----------------0-|

E|---------------------------------------------------------|
B|---------------------------------------------------------|
G|---------------------------------------------------------|
D|4----------------0--------------------4----------------0-|
A|4----------------0--------------------4----------------0-|
D|4----------------0--------------------4----------------0-|

Verse 2
E|---------------------------------------------------------|
B|---------------------------------------------------------|
G|---------------------------------------------------------|
D|4----------------0--------------------4----------------0-|
A|4----------------0--------------------4----------------0-|
D|4----------------0--------------------4----------------0-|
   I'm insane       It's your fault     So               Sly

E|----------------------------------------------------------|
B|----------------------------------------------------------|
G|----------------------------------------------------------|
D|4-----------------0--------------------4----------------0-|
A|4-----------------0--------------------4----------------0-|
D|4-----------------0--------------------4----------------0-|
    Your well         Of lies            Ran              Dry

E|----------------------------------------------------------------|
B|----------------------------------------------------------------|
G|----------------------------------------------------------------|
D|4-----------------0--------------------4----------------0-------|
A|4-----------------0--------------------4----------------0-------|
D|4-----------------0--------------------4----------------0-------|
   Well I cut         The cord           Free             Fall

E|----------------------------------------------------------------|
B|----------------------------------------------------------------|
G|----------------------------------------------------------------|
D|4-----------------0--------------------4----------------0-------|
A|4-----------------0--------------------4----------------0-------|
D|4-----------------0--------------------4----------------0-------|
   From so high       We seem            So               small

Chorus
E|0--0----0-0-0-0-00--0---0------0--0-0-0-00--|
B|2--2----2-2-2-2-22--2---2------2--2-2-2-22--|
G|2--2----2-2-2-2-22--2---2------2--2-2-2-22--|
D|0--0----0-0-0-0-00--2---2------2--2-2-2-22--|
A|2--2----2-2-2-2-22--0---0------0--0-0-0-00--|
D|--------------------------------------------|
  Forgive me father   Why should ya bother

E|--------------------------------|
B|--------------------------------|
G|--------------------------------|
D|7-7-7-6-6-6-4-0-6-6-6-4-4-4-2-0-|
A|4-4-4-4-4-4-4-0-2-2-2-2-2-2-2-0-|
D|4-4-4-4-4-4-4-0-2-2-2-2-2-2-2-0-|
  TRY   HONESTY!  TRY   HONESTY!

E|0---0--0----0--0-0-00---0-0-----0---0--0-0-00--|
B|2---2--2----2--2-2-22---2-2-----2---2--2-2-22--|
G|2---2--2----2--2-2-22---2-2-----2---2--2-2-22--|
D|0---0--0----0--0-0-00---2-2-----2---2--2-2-22--|
A|2---2--2----2--2-2-22---0-0-----0---0--0-0-00--|
D|-----------------------------------------------|
  Hop in your dump truck  Reverse for good luck

E|--------------------------------|
B|--------------------------------|
G|--------------------------------|
D|7-7-7-6-6-6-4-0-6-6-6-4-4-4-2-0-|
A|4-4-4-4-4-4-4-0-2-2-2-2-2-2-2-0-|
D|4-4-4-4-4-4-4-0-2-2-2-2-2-2-2-0-|
  RIDE  OVER  ME! RIDE  OVER  ME!

E|0---0---0---0--0--0-00---0-----0-----0--0--0--0-00--|
B|2---2---2---2--2--2-22---2-----2-----2--2--2--2-22--|
G|2---2---2---2--2--2-22---2-----2-----2--2--2--2-22--|
D|0---0---0---0--0--0-00---2-----2-----2--2--2--2-22--|
A|2---2---2---2--2--2-22---0-----0-----0--0--0--0-00--|
D|----------------------------------------------------|
  Take on the whole world  Fight with the young girls

E|--------------------------------|
B|--------------------------------|
G|--------------------------------|
D|7-7-7-6-6-6-4-0-6-6-6-4-4-4-2-0-|
A|4-4-4-4-4-4-4-0-2-2-2-2-2-2-2-0-|
D|4-4-4-4-4-4-4-0-2-2-2-2-2-2-2-0-|
  DIE   TRAGEDY!  DIE   TRAGEDY!

E|0---0---0--0--0--0-00--0--0----0---0--0--0-00--|
B|2---2---2--2--2--2-22--2--2----2---2--2--2-22--|
G|2---2---2--2--2--2-22--2--2----2---2--2--2-22--|
D|0---0---0--0--0--0-00--2--2----2---2--2--2-22--|
A|2---2---2--2--2--2-22--0--0----0---0--0--0-00--|
D|-----------------------------------------------|
  Call me a  cheap skate Come on for petes sake

E|--------------------------------|
B|--------------------------------|
G|--------------------------------|
D|7-7-7-6-6-6-4-0-6-6-6-4-4-4-2-0-|
A|4-4-4-4-4-4-4-0-2-2-2-2-2-2-2-0-|
D|4-4-4-4-4-4-4-0-2-2-2-2-2-2-2-0-|
  CRY   AGONY!    CRY   AGONY!


Bridge                                  ~   ~
E|------------------9\------------------0---0-|
B|--------5^--------7\--------5^--------2---2-|
G|--------5^------------------5^--------2---2-|
D|4-4-4-4---0-0-0-0---3-3-3-3---0-0-0-0-0---2-|
A|4-4-4-4---0-0-0-0---3-3-3-3---0-0-0-0-2---0-|
D|4-4-4-4---0-0-0-0---3-3-3-3---0-0-0-0-------|
                                    UHHHAACHACHA
                                        ~   ~
E|------------------9\------------------0---0-|
B|--------5^--------7\--------5^--------2---2-|
G|--------5^------------------5^--------2---2-|
D|4-4-4-4---0-0-0-0---3-3-3-3---0-0-0-0-0---2-|
A|4-4-4-4---0-0-0-0---3-3-3-3---0-0-0-0-2---0-|
D|4-4-4-4---0-0-0-0---3-3-3-3---0-0-0-0-------|

E|--------------------------------------------------------0---0-|
B|--------------------------------------------------------2---2-|
G|--------------------------------------------------------2---2-|
D|4----4-2-4-7-4-2-0--------------0--3---3-2-3-5-3-2-0----0---2-|
A|4----4-2-4-7-4-2-0--------------0--3---3-2-3-5-3-2-0----2---0-|
D|4----4-2-4-7-4-2-0----------12--0--3---3-2-3-5-3-2-0----------|
                              ~`
                                                          ~   ~
E|--------------------------------------------------------0---0-|
B|--------------------------------------------------------2---2-|
G|--------------------------------------------------------2---2-|
D|4----4-2-4-7-4-2-0--------------0--3---3-2-3-5-3-2-0----0---2-|
A|4----4-2-4-7-4-2-0--------------0--3---3-2-3-5-3-2-0----2---0-|
D|4----4-2-4-7-4-2-0----------12--0--3---3-2-3-5-3-2-0----------|
                              ~~
E|-------------------------------------------------------------------|
B|-------------------------------------------------------------------|
G|-------------------------------------------------------------------|
D|4----4-2-4-7-4-2-0--------------0--3-3-3-3-0-0-0-0-2-2-2-2-3-3-3-3-|
A|4----4-2-4-7-4-2-0--------------0--3-3-3-3-3-3-3-3-3-3-3-3-3-3-3-3-|
D|4----4-2-4-7-4-2-0----------12--0--3-3-3-3-3-3-3-3-3-3-3-3-3-3-3-3-|
                                                          ~   ~
E|--------------------------------------------------------0---0-|
B|--------------------------------------------------------2---2-|
G|--------------------------------------------------------2---2-|
D|4----4-2-4-7-4-2-0--------------0--3---3-2-3-5-3-2-0----0---2-|
A|4----4-2-4-7-4-2-0--------------0--3---3-2-3-5-3-2-0----2---0-|
D|4----4-2-4-7-4-2-0----------12--0--3---3-2-3-5-3-2-0----------|
                              ~~


                                                          ~   ~
E|--------------------------------------------------------0---0-|
B|--------------------------------------------------------2---2-|
G|--------------------------------------------------------2---2-|
D|4----4-2-4-7-4-2-0--------------0--3---3-2-3-5-3-2-0----0---2-|
A|4----4-2-4-7-4-2-0--------------0--3---3-2-3-5-3-2-0----2---0-|
D|4----4-2-4-7-4-2-0----------12--0--3---3-2-3-5-3-2-0----------|
                              ~~
E|-------------------------------------------------------------------|
B|-------------------------------------------------------------------|
G|-------------------------------------------------------------------|
D|4----4-2-4-7-4-2-0--------------0--3-3-3-3-0-0-0-0-2-2-2-2-3-3-3-3-|
A|4----4-2-4-7-4-2-0--------------0--3-3-3-3-3-3-3-3-3-3-3-3-3-3-3-3-|
D|4----4-2-4-7-4-2-0----------12--0--3-3-3-3-3-3-3-3-3-3-3-3-3-3-3-3-|
                              ~~

E|--------------------------------|
B|--------------------------------|
G|--------------------------------|
D|4-4-4-4-6-6-6-6-7-7-7-7-9-9-9-9-|
A|0-0-0-0-0-0-0-0-0-0-0-0-0-0-0-0-|
D|0-0-0-0-0-0-0-0-0-0-0-0-0-0-0-0-|

E|0---0----------0---------0---------0----------0--------0--------0-------0--|
B|2---2----------2---------2---------2----------0--------0--------0-------0--|
G|2-----2----------2-----2---2-----2---2------2---2-----2--------4-------6---|
D|0-0----------0----------------------------4---------4------4/6-----6/7---7-|
A|2----------2---------0---------0-------------------------------------------|
D|---------------------------------------------------------------------------|

E|----0----------0---------0---------0----------0--------0--------0-------0--|
B|----2----------2---------2---------2----------0--------0--------0-------0--|
G|------2----------2-----2---2-----2---2------2---2-----2--------4-------6---|
D|--0----------0----------------------------4---------4------4/6-----6/7---7-|
A|2----------2---------0---------0-------------------------------------------|
D|---------------------------------------------------------------------------|

E|----0----------0---------0---------0----------0--------0--------0-------0--|
B|----2----------2---------2---------2----------0--------0--------0-------0--|
G|------2----------2-----2---2-----2---2------2---2-----2--------4-------6---|
D|--0----------0----------------------------4---------4------4/6-----6/7---7-|
A|2----------2---------0---------0-------------------------------------------|
D|---------------------------------------------------------------------------|
  Forgive me father    Why should ya bother No-------------------------------|w

E|----0----------0---------0---------0------0-0-0-0-0-0-0-0-0-0-0-0-0-0-|
G|----2----------2---------2---------2------0-0-0-0-0-0-0-0-0-0-0-0-0-0-|
D|------2----------2-----2---2-----2---2----2-2-2-2-2-2-2-2-4-4-4-4-5-5-|
A|--0----------0----------------------------4-4-4-4-4-4-4-4-6-6-6-6-7-7-|
D|2----------2---------0---------0--------------------------------------|
  Forgive me father    Why should ya bother No--------------------------|w

Chorus
E|0--0----0-0-0-0-00--0---0------0--0-0-0-00--|
B|2--2----2-2-2-2-22--2---2------2--2-2-2-22--|
G|2--2----2-2-2-2-22--2---2------2--2-2-2-22--|
D|0--0----0-0-0-0-00--2---2------2--2-2-2-22--|
A|2--2----2-2-2-2-22--0---0------0--0-0-0-00--|
D|--------------------------------------------|
  Forgive me father   Why should ya bother

E|--------------------------------|
B|--------------------------------|
G|--------------------------------|
D|7-7-7-6-6-6-4-0-6-6-6-4-4-4-2-0-|
A|4-4-4-4-4-4-4-0-2-2-2-2-2-2-2-0-|
D|4-4-4-4-4-4-4-0-2-2-2-2-2-2-2-0-|
  TRY   HONESTY!  TRY   HONESTY!

E|0---0--0----0--0-0-00---0-0-----0---0--0-0-00--|
B|2---2--2----2--2-2-22---2-2-----2---2--2-2-22--|
G|2---2--2----2--2-2-22---2-2-----2---2--2-2-22--|
D|0---0--0----0--0-0-00---2-2-----2---2--2-2-22--|
A|2---2--2----2--2-2-22---0-0-----0---0--0-0-00--|
D|-----------------------------------------------|
  Hop in your dump truck  Reverse for good luck

E|--------------------------------|
B|--------------------------------|
G|--------------------------------|
D|7-7-7-6-6-6-4-0-6-6-6-4-4-4-2-0-|
A|4-4-4-4-4-4-4-0-2-2-2-2-2-2-2-0-|
D|4-4-4-4-4-4-4-0-2-2-2-2-2-2-2-0-|
  RIDE  OVER ME!  RIDE OVER ME!

E|0---0---0---0--0--0-00---0-----0-----0--0--0--0-00--|
B|2---2---2---2--2--2-22---2-----2-----2--2--2--2-22--|
G|2---2---2---2--2--2-22---2-----2-----2--2--2--2-22--|
D|0---0---0---0--0--0-00---2-----2-----2--2--2--2-22--|
A|2---2---2---2--2--2-22---0-----0-----0--0--0--0-00--|
D|----------------------------------------------------|
  Take on the whole world  Fight with the young girls

E|--------------------------------|
B|--------------------------------|
G|--------------------------------|
D|7-7-7-6-6-6-4-0-6-6-6-4-4-4-2-0-|
A|4-4-4-4-4-4-4-0-2-2-2-2-2-2-2-0-|
D|4-4-4-4-4-4-4-0-2-2-2-2-2-2-2-0-|
  DIE   TRAGEDY!  DIE   TRAGEDY!

E|0---0---0--0--0--0-00--0--0----0---0--0--0-00--|
B|2---2---2--2--2--2-22--2--2----2---2--2--2-22--|
G|2---2---2--2--2--2-22--2--2----2---2--2--2-22--|
D|0---0---0--0--0--0-00--2--2----2---2--2--2-22--|
A|2---2---2--2--2--2-22--0--0----0---0--0--0-00--|
D|-----------------------------------------------|
  Call me a  cheap skate Come on for petes sake

E|--------------------------------|
B|--------------------------------|
G|--------------------------------|
D|7-7-7-6-6-6-4-0-6-6-6-4-4-4-2-0-|
A|4-4-4-4-4-4-4-0-2-2-2-2-2-2-2-0-|
D|4-4-4-4-4-4-4-0-2-2-2-2-2-2-2-0-|
  CRY   AGONY!    CRY   AGONY!

      ~   ~   ~       ~   ~   ~
E|0---0---0---0---0---0---0---0-------------------------------------|
B|2---2---2---2---2---2---2---2-------------------------------------|
G|2---2---2---2---2---2---2---2-------------------------------------|
D|0---0---0---0---2---2---2---2-----7-7-7-6-6-6-4-0-6-6-6-4-4-4-2-0-|
A|2---2---2---2---0---0---0---0-----4-4-4-4-4-4-4-0-2-2-2-2-2-2-2-0-|
D|----------------------------------4-4-4-4-4-4-4-0-2-2-2-2-2-2-2-0-|
                                    CRY   AGONY!    CRY   AGONY!

      ~   ~   ~       ~   ~   ~
E|0---0---0---0---0---0---0---0--------------------------------------|
B|2---2---2---2---2---2---2---2--------------------------------------|
G|2---2---2---2---2---2---2---2--------------------------------------|
D|0---0---0---0---2---2---2---2-----7-7-7-6-6-6-4-0-6-6-6-4-4-4-2-0--|
A|2---2---2---2---0---0---0---0-----4-4-4-4-4-4-4-0-2-2-2-2-2-2-2-0--|
D|----------------------------------4-4-4-4-4-4-4-0-2-2-2-2-2-2-2-0--|
                                    TRY   HONESTY!  TRY   HONESTY!

      ~   ~   ~       ~   ~   ~
E|0---0---0---0---0---0---0---0------------------------------------|
B|2---2---2---2---2---2---2---2------------------------------------|
G|2---2---2---2---2---2---2---2------------------------------------|
D|0---0---0---0---2---2---2---2----7-7-7-6-6-6-4-0-6-6-6-4-4-4-2-0-|
A|2---2---2---2---0---0---0---0----4-4-4-4-4-4-4-0-2-2-2-2-2-2-2-0-|
D|---------------------------------4-4-4-4-4-4-4-0-2-2-2-2-2-2-2-0-|
                                   CRY   AGONY!    CRY   AGONY!

      ~   ~   ~       ~   ~   ~
E|0---0---0---0---0---0---0---0----------------------0-|
B|2---2---2---2---2---2---2---2----------------------2-|
G|2---2---2---2---2---2---2---2----------------------2-|
D|0---0---0---0---2---2---2---2----7-7-7-7\6-6-6-6-0-0-|
A|2---2---2---2---0---0---0---0----4-4-4-4---2-2-2-0-2-|
D|---------------------------------4-4-4-4---2-2-2-0---|
Tap to rate this tab
# A B C D E F G H I J K L M N O P Q R S T U V W X Y Z