Song name
# A B C D E F G H I J K L M N O P Q R S T U V W X Y Z

Billy Talent - Cut The Curtains tab

Cut The Curtains [SOLO]
Song by: Billy Talent
Tabbed by: pocaron
Tuning: Drop D

h = hammer on
p = pull off
/ = slide
b = bend

e|-------------------------------|-------------------------------|
B|---- 10------------------------|-------------------------------|
G|/10~---10-7----7-9-9b-/7/5h7~~~|-------7-------7-9-9b-/7/5h7~~~|
D|------------7~-----------------|5h6h7----7---7-----------------|
A|-------------------------------|------8----8-------------------|
D|-------------------------------|-------------------------------|

e|-------------------------------|-------------------------------|
B|-------------------------------|-------------------------------|
G|-------------------------------|-------------------------------|
D|5h6h7--5-------------5--------8|-6-7~~~~~~~~~~~~~~~~~~---------|
A|--------8-8~-7---8------8--6-7-|--------------5-5-3-5-7-7-10-7-|
D|-------------------------------|--------------5-5-3-5-7-7-10-7-|
Tap to rate this tab
# A B C D E F G H I J K L M N O P Q R S T U V W X Y Z