Song name
# A B C D E F G H I J K L M N O P Q R S T U V W X Y Z

Billy Talent - Love Was Still Around tab

Intro

e|-------------------------------------------------------------------------|
B|-------------------------------------------------------------------------|
G|-7-7-7-7-7-7-7-7-7-7-7-7-7-7-7-7-10-10-10-10-10-10-10-10-9-9-9-9-9-9-9-9-|
D|-7-7-7-7-7-7-7-7-8-8-8-8-8-8-8-8-7--7--7--7--7--7--7--7--5-5-5-5-5-5-5-5-|
A|-------------------------------------------------------------------------|
D|-------------------------------------------------------------------------|



e|-------------------------------------------------------------------------|
B|-------------------------------------------------------------------------|
G|-7-7-7-7-7-7-7-7-7-7-7-7-7-7-7-7-10-10-10-10-10-10-10-10-9-9-9-9-9-9-9-9-|
D|-3-3-3-3-3-3-3-3-5-5-5-5-5-5-5-5-7--7--7--7--7--7--7--7--7-7-7-7-7-7-7-7-|
A|-------------------------------------------------------------------------|
D|-------------------------------------------------------------------------|


e|-------------------------------------------------------------------------|
B|-------------------------------------------------------------------------|
G|-7-7-7-7-7-7-7-7-7-7-7-7-7-7-7-7-10-10-10-10-10-10-10-10-9-9-9-9-9-9-9-9-|
D|-7-7-7-7-7-7-7-7-8-8-8-8-8-8-8-8-7--7--7--7--7--7--7--7--5-5-5-5-5-5-5-5-|
A|-------------------------------------------------------------------------|
D|-------------------------------------------------------------------------|



e|-------------------------------------------------------------------------|
B|-------------------------------------------------------------------------|
G|-7-7-7-7-7-7-7-7-7-7-7-7-7-7-7-7-10-10-10-10-10-10-10-10-9-9-9-9-9-9-9-9-|
D|-3-3-3-3-3-3-3-3-5-5-5-5-5-5-5-5-7--7--7--7--7--7--7--7--7-7-7-7-7-7-7-7-|
A|-------------------------------------------------------------------------|
D|-------------------------------------------------------------------------|



Verse

e|--------------|--------------|--------------|--------------|
B|--------------|--------------|--------------|--------------|
G|--------------|--------------|--------------|--------------|
D|--------------|--------------|--------------|--------------|
A|-5--5----5--5-|-8--8----7--7-|-5--5----5--5-|-8--8----7--7-|
D|-7--7----8--8-|-5--5----5--5-|-3--3----5--5-|-7--7----7--7-|



e|--------------|--------------|--------------|--------------|
B|--------------|--------------|--------------|--------------|
B|--------------|--------------|--------------|----------777-|
D|--------------|--------------|--------------|--------------|
A|-5--5----5--5-|-8--8----7--7-|-5--5----5--5-|-8--8----7----|
D|-7--7----8--8-|-5--5----5--5-|-3--3----5--5-|-7--7----7---0|



e|--------------|--------------|--------------|--------------|
B|--------------|--------------|--------------|--------------|
B|--------------|--------------|--------------|----------777-|
D|--------------|--------------|--------------|--------------|
A|-5--5----5--5-|-8--8----7--7-|-5--5----5--5-|-8--8----7----|
D|-7--7----8--8-|-5--5----5--5-|-3--3----5--5-|-7--7----7---0|



e|------------------|--------------|------------------|--------------|
B|------------------|--------------|------------------|--------------|
G|-10--10----12--12-|---------5--5-|-10--10----12--12-|---------5--5-|
D|-8---8-----8---8--|-8--8----5--5-|-8---8-----8---8--|-8--8----5--5-|
A|-8---8-----8---8--|-5--5----5--5-|-8---8-----8---8--|-5--5----5--5-|
D|-8---8-----8---8--|-5--5----5--5-|-8---8-----8---8--|-5--5----5--5-|



e|------------------|--------------|---------------------------------|
B|------------------|--------------|-6-6-6-6-6-6-6-6-8-8-8-8-8-8-8-8-|
G|-10--10----12--12-|---------5--5-|-5-5-5-5-5-5-5-5-7-7-7-7-7-7-7-7-|
D|-8---8-----8---8--|-8--8----5--5-|-3-3-3-3-3-3-3-3-5-5-5-5-5-5-5-5-|
A|-8---8-----8---8--|-5--5----5--5-|---------------------------------|
D|-8---8-----8---8--|-5--5----5--5-|---------------------------------|



e|-------------------------------------------|
B|-10-10-10-10-10-10-10-10-10-10-10-10-10-10-|
G|-9--9--9--9--9--9--9--9--9--9--9--9--9--9--|
D|-7--7--7--7--7--7--7--7--7--7--7--7--7--7--|
A|-------------------------------------------|
D|-------------------------------------------|


Chorus

e|----------------------|----------------------|
B|----------------------|----------------------|
G|----------------------|----------------------|
D|----------------------|----------------------|
A|-0---0--7--7--8--8--5-|-0---0--7--7--8--8--5-|
D|-0---0--7--7--8--8--5-|-0---0--7--7--8--8--5-|



e|-----------------|-----------------|
B|-6-6-6-6-6-6-6-6-|-5-5-5-5-5-5-5-5-|
G|-5-5-5-5-5-5-5-5-|-5-5-5-5-5-5-5-5-|
D|-3-3-3-3-3-3-3-3-|-5-5-5-5-5-5-5-5-|
A|-3-3-3-3-3-3-3-3-|-3-3-3-3-3-3-3-3-|
D|-3-3-3-3-3-3-3-3-|-----------------|



e|-----------------|-----------------|-----------------|-----------------|
B|-3-3-3-3-3-3-3-3-|-8-8-8-8-8-8-8-8-|-6-6-6-6-6-6-6-6-|-5-5-5-5-5-5-5-5-|
G|-3-3-3-3-3-3-3-3-|-7-7-7-7-7-7-7-7-|-7-7-7-7-7-7-7-7-|-5-5-5-5-5-5-5-5-|
D|-3-3-3-3-3-3-3-3-|-5-5-5-5-5-5-5-5-|-7-7-7-7-7-7-7-7-|-5-5-5-5-5-5-5-5-|
A|-1-1-1-1-1-1-1-1-|-5-5-5-5-5-5-5-5-|-5-5-5-5-5-5-5-5-|-3-3-3-3-3-3-3-3-|
D|-----------------|-5-5-5-5-5-5-5-5-|-----------------|-----------------|



Verse

e|--------------|--------------|--------------|--------------|
B|--------------|--------------|--------------|--------------|
B|--------------|--------------|--------------|----------777-|
D|--------------|--------------|--------------|--------------|
A|-5--5----5--5-|-8--8----7--7-|-5--5----5--5-|-8--8----7----|
D|-7--7----8--8-|-5--5----5--5-|-3--3----5--5-|-7--7----7---0|


e|--------------|--------------|--------------|--------------|
B|--------------|--------------|--------------|--------------|
B|--------------|--------------|--------------|----------777-|
D|--------------|--------------|--------------|--------------|
A|-5--5----5--5-|-8--8----7--7-|-5--5----5--5-|-8--8----7----|
D|-7--7----8--8-|-5--5----5--5-|-3--3----5--5-|-7--7----7---0|



e|--------------|--------------|--------------|--------------|
B|--------------|--------------|--------------|--------------|
B|--------------|--------------|--------------|----------777-|
D|--------------|--------------|--------------|--------------|
A|-5--5----5--5-|-8--8----7--7-|-5--5----5--5-|-8--8----7----|
D|-7--7----8--8-|-5--5----5--5-|-3--3----5--5-|-7--7----7---0|



e|------------------|--------------|------------------|--------------|
B|------------------|--------------|------------------|--------------|
G|-10--10----12--12-|---------5--5-|-10--10----12--12-|---------5--5-|
D|-8---8-----8---8--|-8--8----5--5-|-8---8-----8---8--|-8--8----5--5-|
A|-8---8-----8---8--|-5--5----5--5-|-8---8-----8---8--|-5--5----5--5-|
D|-8---8-----8---8--|-5--5----5--5-|-8---8-----8---8--|-5--5----5--5-|



e|------------------|--------------|---------------------------------|
B|------------------|--------------|-6-6-6-6-6-6-6-6-8-8-8-8-8-8-8-8-|
G|-10--10----12--12-|---------5--5-|-5-5-5-5-5-5-5-5-7-7-7-7-7-7-7-7-|
D|-8---8-----8---8--|-8--8----5--5-|-3-3-3-3-3-3-3-3-5-5-5-5-5-5-5-5-|
A|-8---8-----8---8--|-5--5----5--5-|---------------------------------|
D|-8---8-----8---8--|-5--5----5--5-|---------------------------------|



e|-------------------------------------------|
B|-10-10-10-10-10-10-10-10-10-10-10-10-10-10-|
G|-9--9--9--9--9--9--9--9--9--9--9--9--9--9--|
D|-7--7--7--7--7--7--7--7--7--7--7--7--7--7--|
A|-------------------------------------------|
D|-------------------------------------------|


Chorus

e|----------------------|----------------------|
B|----------------------|----------------------|
G|----------------------|----------------------|
D|----------------------|----------------------|
A|-0---0--7--7--8--8--5-|-0---0--7--7--8--8--5-|
D|-0---0--7--7--8--8--5-|-0---0--7--7--8--8--5-|



e|-----------------|-----------------|
B|-6-6-6-6-6-6-6-6-|-5-5-5-5-5-5-5-5-|
G|-5-5-5-5-5-5-5-5-|-5-5-5-5-5-5-5-5-|
D|-3-3-3-3-3-3-3-3-|-5-5-5-5-5-5-5-5-|
A|-3-3-3-3-3-3-3-3-|-3-3-3-3-3-3-3-3-|
D|-3-3-3-3-3-3-3-3-|-----------------|



e|-----------------|-----------------|-----------------|-----------------|
B|-3-3-3-3-3-3-3-3-|-8-8-8-8-8-8-8-8-|-6-6-6-6-6-6-6-6-|-5-5-5-5-5-5-5-5-|
G|-3-3-3-3-3-3-3-3-|-7-7-7-7-7-7-7-7-|-7-7-7-7-7-7-7-7-|-5-5-5-5-5-5-5-5-|
D|-3-3-3-3-3-3-3-3-|-5-5-5-5-5-5-5-5-|-7-7-7-7-7-7-7-7-|-5-5-5-5-5-5-5-5-|
A|-1-1-1-1-1-1-1-1-|-5-5-5-5-5-5-5-5-|-5-5-5-5-5-5-5-5-|-3-3-3-3-3-3-3-3-|
D|-----------------|-5-5-5-5-5-5-5-5-|-----------------|-----------------|


e|----------------------|----------------------|
B|----------------------|----------------------|
G|----------------------|----------------------|
D|----------------------|----------------------|
A|-0---0--7--7--8--8--5-|-0---0--7--7--8--8--5-|
D|-0---0--7--7--8--8--5-|-0---0--7--7--8--8--5-|



e|-----------------|-----------------|
B|-6-6-6-6-6-6-6-6-|-5-5-5-5-5-5-5-5-|
G|-5-5-5-5-5-5-5-5-|-5-5-5-5-5-5-5-5-|
D|-3-3-3-3-3-3-3-3-|-5-5-5-5-5-5-5-5-|
A|-3-3-3-3-3-3-3-3-|-3-3-3-3-3-3-3-3-|
D|-3-3-3-3-3-3-3-3-|-----------------|



e|-----------------|-----------------|-----------------|-----------------|
B|-3-3-3-3-3-3-3-3-|-8-8-8-8-8-8-8-8-|-6-6-6-6-6-6-6-6-|-5-5-5-5-5-5-5-5-|
G|-3-3-3-3-3-3-3-3-|-7-7-7-7-7-7-7-7-|-7-7-7-7-7-7-7-7-|-5-5-5-5-5-5-5-5-|
D|-3-3-3-3-3-3-3-3-|-5-5-5-5-5-5-5-5-|-7-7-7-7-7-7-7-7-|-5-5-5-5-5-5-5-5-|
A|-1-1-1-1-1-1-1-1-|-5-5-5-5-5-5-5-5-|-5-5-5-5-5-5-5-5-|-3-3-3-3-3-3-3-3-|
D|-----------------|-5-5-5-5-5-5-5-5-|-----------------|-----------------|


e|-----------------|-----------------|-----------------|-----------------|
B|-3-3-3-3-3-3-3-3-|-8-8-8-8-8-8-8-8-|-6-6-6-6-6-6-6-6-|-5-5-5-5-5-5-5-5-|
G|-3-3-3-3-3-3-3-3-|-7-7-7-7-7-7-7-7-|-7-7-7-7-7-7-7-7-|-5-5-5-5-5-5-5-5-|
D|-3-3-3-3-3-3-3-3-|-5-5-5-5-5-5-5-5-|-7-7-7-7-7-7-7-7-|-5-5-5-5-5-5-5-5-|
A|-1-1-1-1-1-1-1-1-|-5-5-5-5-5-5-5-5-|-5-5-5-5-5-5-5-5-|-3-3-3-3-3-3-3-3-|
D|-----------------|-5-5-5-5-5-5-5-5-|-----------------|-----------------|



Solo (For the rythm guitar, play the verse riff)

e|--------------|-----------------------|----------------------|
B|--------------|-----------------------|----------------------|
G|----14v-------|-14--12--10--9h10p9----|---------------10--12-|
D|-12--------12-|--------------------12-|-10-7--10--12---------|
A|--------------|-----------------------|----------------------|
D|--------------|-----------------------|----------------------|



e|-------------------13--15-|-13h15b----|
B|-10h13p10--13--15---------|-----------|
G|--------------------------|-----------|
D|--------------------------|-----------|
A|--------------------------|-----------|
D|--------------------------|-----------|



e|-15b17r15--13--12--12h13p12--------|
B|----------------------------15--13-|
G|-----------------------------------|
D|-----------------------------------|
A|-----------------------------------|
D|-----------------------------------|


e|-------------13--15--17h20p17-|-18--20--20b---------|
B|-10--13--15-------------------|---------------------|
G|------------------------------|---------------------|
D|------------------------------|---------------------|
A|------------------------------|---------------------|
D|------------------------------|---------------------|



Chorus

e|----------------------|----------------------|
B|----------------------|----------------------|
G|----------------------|----------------------|
D|----------------------|----------------------|
A|-0---0--7--7--8--8--5-|-0---0--7--7--8--8--5-|
D|-0---0--7--7--8--8--5-|-0---0--7--7--8--8--5-|



e|-----------------|-----------------|
B|-6-6-6-6-6-6-6-6-|-5-5-5-5-5-5-5-5-|
G|-5-5-5-5-5-5-5-5-|-5-5-5-5-5-5-5-5-|
D|-3-3-3-3-3-3-3-3-|-5-5-5-5-5-5-5-5-|
A|-3-3-3-3-3-3-3-3-|-3-3-3-3-3-3-3-3-|
D|-3-3-3-3-3-3-3-3-|-----------------|



e|-----------------|-----------------|-----------------|-----------------|
B|-3-3-3-3-3-3-3-3-|-8-8-8-8-8-8-8-8-|-6-6-6-6-6-6-6-6-|-5-5-5-5-5-5-5-5-|
G|-3-3-3-3-3-3-3-3-|-7-7-7-7-7-7-7-7-|-7-7-7-7-7-7-7-7-|-5-5-5-5-5-5-5-5-|
D|-3-3-3-3-3-3-3-3-|-5-5-5-5-5-5-5-5-|-7-7-7-7-7-7-7-7-|-5-5-5-5-5-5-5-5-|
A|-1-1-1-1-1-1-1-1-|-5-5-5-5-5-5-5-5-|-5-5-5-5-5-5-5-5-|-3-3-3-3-3-3-3-3-|
D|-----------------|-5-5-5-5-5-5-5-5-|-----------------|-----------------|


e|----------------------|----------------------|
B|----------------------|----------------------|
G|----------------------|----------------------|
D|----------------------|----------------------|
A|-0---0--7--7--8--8--5-|-0---0--7--7--8--8--5-|
D|-0---0--7--7--8--8--5-|-0---0--7--7--8--8--5-|



e|-----------------|-----------------|
B|-6-6-6-6-6-6-6-6-|-5-5-5-5-5-5-5-5-|
G|-5-5-5-5-5-5-5-5-|-5-5-5-5-5-5-5-5-|
D|-3-3-3-3-3-3-3-3-|-5-5-5-5-5-5-5-5-|
A|-3-3-3-3-3-3-3-3-|-3-3-3-3-3-3-3-3-|
D|-3-3-3-3-3-3-3-3-|-----------------|



e|-----------------|-----------------|-----------------|-----------------|
B|-3-3-3-3-3-3-3-3-|-8-8-8-8-8-8-8-8-|-6-6-6-6-6-6-6-6-|-5-5-5-5-5-5-5-5-|
G|-3-3-3-3-3-3-3-3-|-7-7-7-7-7-7-7-7-|-7-7-7-7-7-7-7-7-|-5-5-5-5-5-5-5-5-|
D|-3-3-3-3-3-3-3-3-|-5-5-5-5-5-5-5-5-|-7-7-7-7-7-7-7-7-|-5-5-5-5-5-5-5-5-|
A|-1-1-1-1-1-1-1-1-|-5-5-5-5-5-5-5-5-|-5-5-5-5-5-5-5-5-|-3-3-3-3-3-3-3-3-|
D|-----------------|-5-5-5-5-5-5-5-5-|-----------------|-----------------|



e|-----------------|-----------------|-----------------|-----------------|
B|-3-3-3-3-3-3-3-3-|-8-8-8-8-8-8-8-8-|-6-6-6-6-6-6-6-6-|-5-5-5-5-5-5-5-5-|
G|-3-3-3-3-3-3-3-3-|-7-7-7-7-7-7-7-7-|-7-7-7-7-7-7-7-7-|-5-5-5-5-5-5-5-5-|
D|-3-3-3-3-3-3-3-3-|-5-5-5-5-5-5-5-5-|-7-7-7-7-7-7-7-7-|-5-5-5-5-5-5-5-5-|
A|-1-1-1-1-1-1-1-1-|-5-5-5-5-5-5-5-5-|-5-5-5-5-5-5-5-5-|-3-3-3-3-3-3-3-3-|
D|-----------------|-5-5-5-5-5-5-5-5-|-----------------|-----------------|



e|-----------------|-----------------|-----------------|-----------------|
B|-3-3-3-3-3-3-3-3-|-8-8-8-8-8-8-8-8-|-6-6-6-6-6-6-6-6-|-5-5-5-5-5-5-5-5-|
G|-3-3-3-3-3-3-3-3-|-7-7-7-7-7-7-7-7-|-7-7-7-7-7-7-7-7-|-5-5-5-5-5-5-5-5-|
D|-3-3-3-3-3-3-3-3-|-5-5-5-5-5-5-5-5-|-7-7-7-7-7-7-7-7-|-5-5-5-5-5-5-5-5-|
A|-1-1-1-1-1-1-1-1-|-5-5-5-5-5-5-5-5-|-5-5-5-5-5-5-5-5-|-3-3-3-3-3-3-3-3-|
D|-----------------|-5-5-5-5-5-5-5-5-|-----------------|-----------------|


Outro

e|-------------------------------------------------------------------------|
B|-------------------------------------------------------------------------|
G|-7-7-7-7-7-7-7-7-7-7-7-7-7-7-7-7-10-10-10-10-10-10-10-10-9-9-9-9-9-9-9-9-|
D|-7-7-7-7-7-7-7-7-8-8-8-8-8-8-8-8-7--7--7--7--7--7--7--7--5-5-5-5-5-5-5-5-|
A|-------------------------------------------------------------------------|
D|-------------------------------------------------------------------------|



e|-------------------------------------------------------------------------|
B|-------------------------------------------------------------------------|
G|-7-7-7-7-7-7-7-7-7-7-7-7-7-7-7-7-10-10-10-10-10-10-10-10-9-9-9-9-9-9-9-9-|
D|-3-3-3-3-3-3-3-3-5-5-5-5-5-5-5-5-7--7--7--7--7--7--7--7--7-7-7-7-7-7-7-7-|
A|-------------------------------------------------------------------------|
D|-------------------------------------------------------------------------|


e|-------------------------------------------------------------------------|
B|-------------------------------------------------------------------------|
G|-7-7-7-7-7-7-7-7-7-7-7-7-7-7-7-7-10-10-10-10-10-10-10-10-9-9-9-9-9-9-9-9-|
D|-7-7-7-7-7-7-7-7-8-8-8-8-8-8-8-8-7--7--7--7--7--7--7--7--5-5-5-5-5-5-5-5-|
A|-------------------------------------------------------------------------|
D|-------------------------------------------------------------------------|



e|-------------------------------------------------------------------------|
B|-------------------------------------------------------------------------|
G|-7-7-7-7-7-7-7-7-7-7-7-7-7-7-7-7-10-10-10-10-10-10-10-10-9-9-9-9-9-9-9-9-|
D|-3-3-3-3-3-3-3-3-5-5-5-5-5-5-5-5-7--7--7--7--7--7--7--7--7-7-7-7-7-7-7-7-|
A|-------------------------------------------------------------------------|
D|-------------------------------------------------------------------------|



E|--------|
B|--------|
G|--------|
D|--------|
A|-0------|
E|-0------|
Tap to rate this tab
# A B C D E F G H I J K L M N O P Q R S T U V W X Y Z