Song name
# A B C D E F G H I J K L M N O P Q R S T U V W X Y Z

Billy Talent - Dead Silence tab

Hey guys, this is my first tab.
Dead Silence is one of my favorite songs from their new album.
Everything I figured out was through listening and watching videos.
I didn't get everything, but I hope you enjoy playing that song. :)


Intro

e|-------------------------------------------------------------------|
B|-------------------------------------------------------------------|
G|--/7--7-----7h10--10-----9------9------12-----12------10------12---|
D|--/7-----7-----------7------10-----11------11/12--12------12-------|
A|-------------------------------------------------------------------|
D|-------------------------------------------------------------------|

e|-------------------------------------------------------------------|
B|-------------------------------------------------------------------|
G|------12/15--15------14------14------14--12p10p9------10--9--7~----|
D|--12-------------15------15------11--------------------------0~----|
A|--------------------------------------------------12---------------|
D|-------------------------------------------------------------------|

e|-------------------------------------------------------------------|
B|--3--3--3--3--3--3--3----------------------------------------------|
G|--2--2--2--2--2--2--2----------------------------------------------|
D|--0--0--0--0--0--0--0----------------------------------------------|
A|-------------------------------------------------------------------|
D|-------------------------------------------------------------------|

Verse 1 (play 2 times)

e|--5~-----5~-----5~-----5~-----------6-6---5---5~------------|------|
B|--6~-----6~-----5~-----6~-----8-6-8---6~------5~-----8p6p5--|-6-5--|
G|--7~-----5~-----6~-----7~-----7~------5~------6~------------|------|
D|--7~-----7~-----7~-----7~-----5~--------------7~------------|------|
A|--0~-----0~-----0~-----0~-----------------------------------|------|
D|------------------------------------------------------------|------|
                                                  (last part only first time)

Chorus 1

e|-------------------------------------------------------------------|
B|-------------------------------------------------------------------|
G|-------------------------------------------------------------------|
D|--5h7-8~-------8p5-7~-----------8~-------3p0-3~--------------------|
A|------5~-----------5~-------5h7-8~-----------3~--------------------|
D|------5~-----------0~-----------8~-----------3~--------------------|

e|-----------------------------------------------5~--5~--5~--5~------|
B|-----------------------------------------------5~--5~--5~--5~------|
G|-----------------------------------------------7~--7~--6~--6~------|
D|--5h7-8~-------8p5-7~-----------8~----------5--7~--7~--7~--7~------|
A|------5~-----------5~-------5h7-8~---------------------------------|
D|------5~-----------0~-----------8~---------------------------------|

Verse 2 (play 2 times)

e|--55555-----55555-----55555-----55555------------------------------|
B|--66666-----66666-----55555-----66666------------------------------|
G|--77777-----55555-----66666-----77777------------------------------|
D|--77777-----77777-----77777-----77777------------------------------|
A|---------0---------0---------0---------0---------------------------|
D|-------------------------------------------------------------------|

e|----------------------55555----55555555----------------------------|
B|----------------------55555----55555555----------------------------|
G|----------------------77777----66666666----------------------------|
D|--55555-----33333-----77777----77777777----------------------------|
A|--55555-----33333------------0-------------------------------------|
D|--55555--0--33333--0-----------------------------------------------|

e|--55555-----55555-----55555-----55555------------------------------|
B|--66666-----66666-----55555-----66666------------------------------|
G|--77777-----55555-----66666-----77777------------------------------|
D|--77777-----77777-----77777-----77777------------------------------|
A|---------0---------0---------0---------0---------------------------|
D|-------------------------------------------------------------------|

  (here ten's, eleven's and twelve's played like above)
e|--1010101010-----1010101010----1010101010------9-9-9-9-9-9-9-9-9---|
B|--1111111111-----1111111111----1010101010-----101010101010101010---|
G|--1212121212-----1010101010----1010101010------9-9-9-9-9-9-9-9-9---|
D|--------------0--------------0-------------0-----------------------|
A|-------------------------------------------------------------------|
D|-------------------------------------------------------------------|

Chorus 2
(play Chorus 1 one time, then this:)

e|-------------------------------------------------------------------|
B|-------------------------------------------------------------------|
G|-------------------------------------------------------------------|
D|--5h7-8-888-888-888--8p5-7-777-777-777------8-888-888-888----------|
A|------5-555-555-555------5-555-555-555--5h7-8-888-888-888----------|
D|------5-555-555-555------0-000-000-000------8-888-888-888----------|

e|-------------------------------------------------------------------|
B|-------------------------------------------------------------------|
G|-------------------------------------------------------------------|
D|--3p0-3-333-333-333------------------------------------------------|
A|------3-333-333-333------------------------------------------------|
D|------3-333-333-333------------------------------------------------|

e|-------------------------------------------------------------------|
B|---------------------------------------------------------(5)-------|
G|-------------------------------------------------------------------|
D|--5h7-8-888-888-888--8p5-7-777-777-777------8-888-888-888----------|
A|------5-555-555-555------5-555-555-555--5h7-8-888-888-888----------|
D|------5-555-555-555------5-555-555-555------8-888-888-888----------|

e|--5--5--5--5-------------------------------------------------------|
B|--5--5--5--5-------------------------------------------------------|
G|--7--7--6--6-------------------------------------------------------|
D|--7--7--7--7-------------------------------------------------------|
A|--0--0--0--0-------------------------------------------------------|
D|-------------------------------------------------------------------|

Pre-Bridge (play 2 times)
(here you strum everything through)
e|-------------------------------------------------------------------|
B|-------------------------------------------------------------------|
G|----/7---------10----9-----9-----12----12----10---12----15---------|
D|----/7----------7---10----11-----11----12----12---12----15---------|
A|-------------------------------------------------------------------|
D|-------------------------------------------------------------------|

e|-------------------------------------------------------------------|
B|-------------------------------------------------------------------|
G|--14-----14-------12-10--9-----------------------------------------|
D|--15-----11-------11-11-11-----------------------------------------|
A|-------------------------------------------------------------------|
D|-------------------------------------------------------------------|

Bridge (not complete! I'm sorry, but it's to fast for me ^^)

e|-------------------------------------------------------------------|
B|-------------------------------------------------------------------|
G|-------------------------------------------------------------------|
D|--0-3-5---0---5---8-7-------0~---0-2-3---0---3---8-7---3~----------|
A|------------------------8~---------------------------------3~------|
D|-------------------------------------------------------------------|

e|-------------------------------------------------------------------|
B|-------------------------------------------------------------------|
G|-------------------------------------------------------------------|
D|--0-3-5---0---5---8-7-------0~---------------5~----5-77(...)-------|
A|------------------------8~-------5-7-8~--7-8-----8-----------------|
D|-------------------------------------------------------------------|

Bridge
(strum through, stum pattern is the same as in Chorus 2)
e|--5-----------------------------------------5----------------------|
B|--6-----------------------------------------6------3---------------|
G|--7-----------------------------------------7------x---------------|
D|--7-------10-------12-------7-------8-------7------3---------------|
A|--5--------7--------8-------3-------5-------5------1---------------|
D|--0--------7--------8-------3-------5-------0----------------------|

e|--5~---5~---5~---5~------------------------------------------------|
B|--5~---5~---5~---5~------------------------------------------------|
G|--7~---7~---6~---6~------------------------------------------------|
D|--7~---7~---7~---7~------------------------------------------------|
A|--0~---0~---0~---0~------------------------------------------------|
D|-------------------------------------------------------------------|

e|--5-----------------------------------------5----------------------|
B|--6-----------------------------------------6------3---------------|
G|--7---------9-------10-------5------7-------7------x---------------|
D|--7--------10-------12-------7------8-------7------3---------------|
A|--5---------7-------8--------3------5-------5------1---------------|
D|--0---------7-------8--------3------5-------0----------------------|

e|--5~---5~---5~---5~------------------------------------------------|
B|--5~---5~---5~---5~------------------------------------------------|
G|--7~---7~---6~---6~------------------------------------------------|
D|--7~---7~---7~---7~------------------------------------------------|
A|--0~---0~---0~---0~------------------------------------------------|
D|-------------------------------------------------------------------|

Post-Bridge

e|-------------------------------------------------------------------|
B|-------------------------------------------------------------------|
G|---------------3p0-2~-----(play 2 times)---------------------------|
D|--5h7-10~----------x-----------------------------------------------|
A|-------8~----------3~----------------------------------------------|
D|-------8~----------3~----------------------------------------------|

e|-------------------------------------------------------------------|
B|-------------------------------------------------------------------|
G|-------------------------3p0--2---2---2---2------------------------|
D|--5h7-10---10---10---10-------x---x---x---x--5h7-10---10---10---10-|
A|-------8----8----8----8-------3---3---3---3-------8----8----8----8-|
D|-------8----8----8----8-------3---3---3---3-------8----8----8----8-|

e|--5~---5~---5~---5~------------------------------------------------|
B|--5~---5~---5~---5~------------------------------------------------|
G|--7~---7~---6~---6~------------------------------------------------|
D|--7~---7~---7~---7~------------------------------------------------|
A|--0~---0~---0~---0~------------------------------------------------|
D|-------------------------------------------------------------------|

Chorus 3
(play second part of Chorus 2 once)

Outro (Ian plays it several times, while the song fades out)

e|------------------5-555-555-555-55---------------------------------|
B|--8-888-888-888-886-666-666-666-66-----------------------------6---|
G|--7-777-777-777-777-777-777-777-7710-101010-101010-101010-10-105---|
D|--5-555-555-555-557-777-777-777-77-8--8-8-8--8-8-8--8-8-8--8--83---|
A|--5-555-555-555-555-555-555-555-55-8--8-8-8--8-8-8--8-8-8--8--83---|
D|--5-555-555-555-550-000-000-000-00-8--8-8-8--8-8-8--8-8-8--8--83---|

e|--------------------------------5-555-555-555-55-------------------|
B|--666-666-666-668-888-888-888-886-666-666-666-663-333-333-333-33---|
G|--555-555-555-557-777-777-777-777-777-777-777-77x-xxx-xxx-xxx-xx---|
D|--333-333-333-335-555-555-555-557-777-777-777-773-333-333-333-33---|
A|--333-333-333-335-555-555-555-555-555-555-555-551-111-111-111-11---|
D|--333-333-333-335-555-555-555-550-000-000-000-00-------------------|

e|--5~---5~----5~---5~----|
B|--5~---5~----5~---5~----|
G|--7~---7~----6~---6~----|
D|--7~---7~----7~---7~----| (and so on...)
A|--0~---0~----0~---0~----|
D|------------------------|



h = hammer on
p = pull off
x = mute note
~ = hold the note


If there's something wrong with this tab, or you have figured out the last part of the 
bridge, please comment. :)
Tap to rate this tab
# A B C D E F G H I J K L M N O P Q R S T U V W X Y Z