Song name
# A B C D E F G H I J K L M N O P Q R S T U V W X Y Z

Billy Talent - Show Me The Way tab

My first tab. Sounds good to me. But I have some problems with last 4 chords in 
bridge. Waiting for your corrections.
Part 1
Intro  
e|-----------------------------------------------------xx--x-x-------|
B|-----------------------------------------------------33--3-3-------|
G|-----------------------------------------------------00--0-0-------| x2
D|-----------------------------------------------------00--0-0-------|
A|-----------------------------------------------------xx--x-x-------|
D|-0-0--0-4-5-5/7--7-7-7-7-7-9-9-10--10--101010-9-7-0--22--2-2-------|

Verse 
e|-------------------------------------------------xx--x-x-------|
B|-------------------------------------------------33--3-3-------|
G|-------------------------------------------------00--0-0-------| x2
D|-------------------------------------------------00--0-0-------|
A|-------------------------------------------------xx--x-x-------|
D|-0-0--0-4-5-5/7--7-7-7-7-7-9-9-10--10--10-9-7-0--22--2-2-------|

e|-5-5---------------------------------------------xx--x-x-------|
B|-3-3---------------------------------------------33--3-3-------|
G|-2-2---------------------------------------------00--0-0-------| 
D|-0-0---------------------------------------------00--0-0-------|
A|-0-0---------------------------------------------xx--x-x-------|
D|------0-4-5-5/7--7-7-7-7-7-9-9-10--10--10-9-7-0--22--2-2-------|

e|-------------------------------------------------xx--x-x-------|
B|-------------------------------------------------33--3-3-------|
G|-------------------------------------------------00--0-0-------| 
D|-------------------------------------------------00--0-0-------|
A|-------------------------------------------------xx--x-x-------|
D|-0-0--0-4-5-5/7--7-7-7-7-7-9-9-10--10--10-9-7-0--22--2-2-------|

Chorus
e|-33-3330-33-3333----------xx-x-x-------------------------------|
B|-22-2220-11-1111--55-5550-33-3-3-------------------------------|
G|-33-3330-22-2222--55-5550-00-0-0-------------------------------| x2
D|-00-0000-22-2222--55-5550-00-0-0-------------------------------|
A|------------------33-3330-xx-x-x-------------------------------|
D|------------------33-3330-22-2-2-------------------------------|

Part 2
Intro 2 - 1x
Verse 2 the same as Verse 1
Chorus 2 - 4x


Bridge
e|------------------------------------------------------------------|
B|-----------------1313---13131313---15-15--13-13-------------------|
G|------------------8-8---8-8-8-8-----x--x---x--x-------------------| x3
D|--1212--99--1010--8-8---8-8-8-8----15-15--14-14--1414-141414-0----|
A|---8-8--88---8-8--8-8---8-8-8-8-----0--0---0--0--1212--0-0-0-0----|
D|---8-8--88---8-8--8-8---8-8-8-8-----x--x---x--x---0-0--0-0-0-0----|

e|------------------------------------3333555577778888-----|
B|-----------------1313---13131313----4444666688889999-----|
G|------------------8-8---8-8-8-8-----xxxxxxxxxxxxxxxx-----| x3
D|--1212--99--1010--8-8---8-8-8-8-----4444666688889999-----|
A|---8-8--88---8-8--8-8---8-8-8-8-----3333555577778888-----|
D|---8-8--88---8-8--8-8---8-8-8-8-----3333555577778888-----|

Chorus 3 - 6x
Tap to rate this tab
# A B C D E F G H I J K L M N O P Q R S T U V W X Y Z