Song name
# A B C D E F G H I J K L M N O P Q R S T U V W X Y Z

Billy Talent - This Is How It Goes tab

This is how it Goes (Try Honesty Album, original version)
by Billy Tallent

Tabbed By Jabber025

Just one thing to say, i saw many tabs that i tried with this song and many of
them where very good, so i decided to tab the song by myself and i think is is
95% okay. Hope you like it. Please Rate. note: this the original "this is how
it goes", not the new one.


Intro
                                                      
E-----------5-----------0--|-----------6-----------5--|
B--------------------6-----|--------5-----------3-----|
G--------6--------7--------|-----5-----------3--------|
D-----7--------8-----------|--3-----------2-----------|
A--5-----------------------|--------------------------|
D--------------------------|--------------------------|


                                                      
-----------5-----------0--|-----------6-----------5--|
--------------------6-----|--------5-----------3-----|
--------6--------7--------|-----5-----------3--------|
-----7--------8-----------|--3-----------2-----------|
--5-----------------------|--------------------------|
--------------------------|--------------------------|


                                                      
-----------5-----------0--|-----------6-----------5--|
--------------------6-----|--------5-----------3-----|
--------6--------7--------|-----5-----------3--------|
-----7--------8-----------|--3-----------2-----------|
--5-----------------------|--------------------------|
--------------------------|--------------------------|


                                                      
-----------5-----------0--|-----------6-----------5--|
--------------------6-----|--------5-----------3-----|
--------6--------7--------|-----5-----------3--------|
-----7--------8-----------|--3-----------2-----------|
--5-----------------------|--------------------------|
--------------------------|--------------------------|


                                                               
-----------------------10-----|---------5----------------------|
---------10------------10-----|---------5----------------------|
---------10------------10-----|---------5----------------------|
--0-0--0-----0--8-8--8-----8--|--3-3--3----3-------------------|
--0-0--0-----0--8-8--8-----8--|--3-3--3----3----------10-------|
--0-0--0-----0--8-8--8-----8--|--3-3--3----3--7-7-5-7----7-5-3-|


                                                                
-----------------------10-----|---------5----------------------|
---------10------------10-----|---------5----------------------|
---------10------------10-----|---------5----------------------|
--0-0--0-----0--8-8--8-----8--|--3-3--3----3--7-7-5-6-7--------|
--0-0--0-----0--8-8--8-----8--|--3-3--3----3------------5------|
--0-0--0-----0--8-8--8-----8--|--3-3--3----3--------------7-5--|


                                                               
-----------------------10-----|---------5----------------------|
---------10------------10-----|---------5----------------------|
---------10------------10-----|---------5----------------------|
--0-0--0-----0--8-8--8-----8--|--3-3--3----3-------------------|
--0-0--0-----0--8-8--8-----8--|--3-3--3----3----------10-------|
--0-0--0-----0--8-8--8-----8--|--3-3--3----3--7-7-5-7----7-5-3-|


                                                                
-----------------------10-----|---------5----------------------|
---------10------------10-----|---------5----------------------|
---------10------------10-----|---------5----------------------|
--0-0--0-----0--8-8--8-----8--|--3-3--3----3--7-7-7-7-7-7-7-7--|
--0-0--0-----0--8-8--8-----8--|--3-3--3----3--7-7-7-7-7-7-7-7--|
--0-0--0-----0--8-8--8-----8--|--3-3--3----3--7-7-7-7-7-7-7-7--|


Verse                                                       
---------------12--10----10--|-------5-------5--x--5--| x6
-------10------10--10-13-10--|------------------------|
-----------------------------|------------------------|
----0------------------------|----3-------2-----------|
-----------------------------|------------------------|
-----------------------------|------------------------|
...Just As i Began to Run...



Pre Chrous                                                                     
--2--x-2-2-x-x-x-1----1-1-1-----|--8-----8--8--8------5----5-5------| x4
--3--x-3-3-x-x-x-3--x-3-3-3-x-x-|--10--x-10-10-10-x-x-5--x-5-5--x-x-|
--2--x-2-2-x-x-x-3--x-3-3-3-x-x-|--10--x-10-10-10-x-x-6--x-6-6--x-x-|
--0--x-0-0-x-x-x-3--x-3-3-3-x-x-|--10--x-10-10-10-x-x-7--x-7-7--x-x-|
-----------------1--x-1-1-1-x-x-|--8---x-8--8--8--x-x-7--x-7-7--x-x-|
--------------------------------|---------------------5----5-5------|
...It's not the same for you...


Chorus                                                              
-----------------------10-----|---------5----------------------|
---------10------------10-----|---------5----------------------|
---------10------------10-----|---------5----------------------|
--0-0--0-----0--8-8--8-----8--|--3-3--3----3-------------------|
--0-0--0-----0--8-8--8-----8--|--3-3--3----3----------10-------|
--0-0--0-----0--8-8--8-----8--|--3-3--3----3--7-7-5-7----7-5-3-|
..So I hold My Breath Till My Heart Ex...plodes!!!...


                                                                
-----------------------10-----|---------5----------------------|
---------10------------10-----|---------5----------------------|
---------10------------10-----|---------5----------------------|
--0-0--0-----0--8-8--8-----8--|--3-3--3----3--7-7-5-6-7--------|
--0-0--0-----0--8-8--8-----8--|--3-3--3----3------------5------|
--0-0--0-----0--8-8--8-----8--|--3-3--3----3--------------7-5--|


                                                               
-----------------------10-----|---------5----------------------|
---------10------------10-----|---------5----------------------|
---------10------------10-----|---------5----------------------|
--0-0--0-----0--8-8--8-----8--|--3-3--3----3-------------------|
--0-0--0-----0--8-8--8-----8--|--3-3--3----3----------10-------|
--0-0--0-----0--8-8--8-----8--|--3-3--3----3--7-7-5-7----7-5-3-|


                                                                
-----------------------10-----|---------5----------------------|
---------10------------10-----|---------5----------------------|
---------10------------10-----|---------5----------------------|
--0-0--0-----0--8-8--8-----8--|--3-3--3----3--7-7-7-7-7-7-7-7--|
--0-0--0-----0--8-8--8-----8--|--3-3--3----3--7-7-7-7-7-7-7-7--|
--0-0--0-----0--8-8--8-----8--|--3-3--3----3--7-7-7-7-7-7-7-7--|



Verse                                                       
---------------12--10----10--|-------5-------5--x--5--| x6
-------10------10--10-13-10--|------------------------|
-----------------------------|------------------------|
----0------------------------|----3-------2-----------|
-----------------------------|------------------------|
-----------------------------|------------------------|
...Place My Bed Upon The Fire...



Pre Chrous                                                                     
--2--x-2-2-x-x-x-1----1-1-1-----|--8-----8--8--8------5----5-5------| x4
--3--x-3-3-x-x-x-3--x-3-3-3-x-x-|--10--x-10-10-10-x-x-5--x-5-5--x-x-|
--2--x-2-2-x-x-x-3--x-3-3-3-x-x-|--10--x-10-10-10-x-x-6--x-6-6--x-x-|
--0--x-0-0-x-x-x-3--x-3-3-3-x-x-|--10--x-10-10-10-x-x-7--x-7-7--x-x-|
-----------------1--x-1-1-1-x-x-|--8---x-8--8--8--x-x-7--x-7-7--x-x-|
--------------------------------|---------------------5----5-5------|
...It's not the same for you...


                                                               
Chorus                                                              
-----------------------10-----|---------5----------------------|
---------10------------10-----|---------5----------------------|
---------10------------10-----|---------5----------------------|
--0-0--0-----0--8-8--8-----8--|--3-3--3----3-------------------|
--0-0--0-----0--8-8--8-----8--|--3-3--3----3----------10-------|
--0-0--0-----0--8-8--8-----8--|--3-3--3----3--7-7-5-7----7-5-3-|
..So I hold My Breath Till My Heart Ex...plodes!!!...

                                     
                           
-----------------------10-----|---------5----------------------|
---------10------------10-----|---------5----------------------|
---------10------------10-----|---------5----------------------|
--0-0--0-----0--8-8--8-----8--|--3-3--3----3--7-7-5-6-7--------|
--0-0--0-----0--8-8--8-----8--|--3-3--3----3------------5------|
--0-0--0-----0--8-8--8-----8--|--3-3--3----3--------------7-5--|


                                                               
-----------------------10-----|---------5----------------------|
---------10------------10-----|---------5----------------------|
---------10------------10-----|---------5----------------------|
--0-0--0-----0--8-8--8-----8--|--3-3--3----3-------------------|
--0-0--0-----0--8-8--8-----8--|--3-3--3----3----------10-------|
--0-0--0-----0--8-8--8-----8--|--3-3--3----3--7-7-5-7----7-5-3-|


                                                                
-----------------------10-----|---------5----------------------|
---------10------------10-----|---------5----------------------|
---------10------------10-----|---------5----------------------|
--0-0--0-----0--8-8--8-----8--|--3-3--3----3--7-7-5-6-7--------|
--0-0--0-----0--8-8--8-----8--|--3-3--3----3------------5------|
--0-0--0-----0--8-8--8-----8--|--3-3--3----3--------------7-5--|



After-Chorus                                                               
-----------------------10-----|---------5----------------------|
---------10------------10-----|---------5----------------------|
---------10------------10-----|---------5----------------------|
--0-0--0-----0--8-8--8-----8--|--3-3--3----3-------------------|
--0-0--0-----0--8-8--8-----8--|--3-3--3----3----------10-------|
--0-0--0-----0--8-8--8-----8--|--3-3--3----3--7-7-5-7----7-5-3-|
...This is...How It...It Goes...

                                                                
-----------------------10-----|---------5----------------------|
---------10------------10-----|---------5----------------------|
---------10------------10-----|---------5----------------------|
--0-0--0-----0--8-8--8-----8--|--3-3--3----3--7-7-5-6-7--------|
--0-0--0-----0--8-8--8-----8--|--3-3--3----3------------5------|
--0-0--0-----0--8-8--8-----8--|--3-3--3----3--------------7-5--|


                                                               
-----------------------10-----|---------5----------------------|
---------10------------10-----|---------5----------------------|
---------10------------10-----|---------5----------------------|
--0-0--0-----0--8-8--8-----8--|--3-3--3----3-------------------|
--0-0--0-----0--8-8--8-----8--|--3-3--3----3----------10-------|
--0-0--0-----0--8-8--8-----8--|--3-3--3----3--7-7-5-7----7-5-3-|


                                                           
-----------------------10-----|---------5------------------|
---------10------------10-----|---------5-----------10-10--|
---------10------------10-----|---------5-----------10-10--|
--0-0--0-----0--8-8--8-----8--|--3-3--3----3--7-7----------|
--0-0--0-----0--8-8--8-----8--|--3-3--3----3--7-7----------|
--0-0--0-----0--8-8--8-----8--|--3-3--3----3--7-7----------|


Bridge

(*)                                                                  
--5-5-5-5-5-5--5-5-5-5-5-5-5-5--|--5-5-5-5-5-5--5-5-5-5-5-5-5-5--|
--6-6-6-6-6-6--6-6-6-6-6-6-6-6--|--3-3-3-3-3-3--3-3-3-3-3-3-3-3--|
--7-7-7-7-7-7--7-7-7-7-7-7-7-7--|--4-4-4-4-4-4--4-4-4-4-4-4-4-4--|
--------------------------------|--------------------------------|
--------------------------------|--------------------------------|
--------------------------------|--------------------------------|


                                                                  
--5-5-5-5-5-5--5-5-5-5-5-5-5-5--|--3-3-3-3-3-3--3-3-3-3-3-3-3-3--| x2 from 
--3-3-3-3-3-3--3-3-3-3-3-3-3-3--|--1-1-1-1-1-1--1-1-1-1-1-1-1-1--|asterisk 
--3-3-3-3-3-3--3-3-3-3-3-3-3-3--|--2-2-2-2-2-2--2-2-2-2-2-2-2-2--|(*)
--------------------------------|--------------------------------|
--------------------------------|--------------------------------|
--------------------------------|--------------------------------|


                                                                
 (#)                                                                 
--5-5-5-5-5-5--5-5-5-5-5-5-5-5--|--5-5-5-5-5-5--5-5-5-5-5-5-5-5--|
--6-6-6-6-6-6--6-6-6-6-6-6-6-6--|--3-3-3-3-3-3--3-3-3-3-3-3-3-3--|
--7-7-7-7-7-7--7-7-7-7-7-7-7-7--|--4-4-4-4-4-4--4-4-4-4-4-4-4-4--|
--------------------------------|--------------------------------|
--------------------------------|--------------------------------|
--------------------------------|--------------------------------|
...So Unscrew My Head...

                                                                  
--5-5-5-5-5-5--5-5-5-5-5-5-5-5--|--3-3-3-3-3-3--3-3-3-3-3-3-3-3--| x2 from 
--3-3-3-3-3-3--3-3-3-3-3-3-3-3--|--1-1-1-1-1-1--1-1-1-1-1-1-1-1--|number (#)
--3-3-3-3-3-3--3-3-3-3-3-3-3-3--|--2-2-2-2-2-2--2-2-2-2-2-2-2-2--|
--------------------------------|--------------------------------|
--------------------------------|--------------------------------|
--------------------------------|--------------------------------|
...And Rinse It Out...


($)...running out of symbols...                                                                      
--5-5-5-5-5-5-5-5-5-5-5-5-5-5-5-5-|--5-5-5-5-5-5-5-5-5-5-5-5-5-5-5-5-|
--6-6-6-6-6-6-6-6-6-6-6-6-6-6-6-6-|--3-3-3-3-3-3-3-3-3-3-3-3-3-3-3-3-|
--7-7-7-7-7-7-7-7-7-7-7-7-7-7-7-7-|--4-4-4-4-4-4-4-4-4-4-4-4-4-4-4-4-|
----------------------------------|----------------------------------|
----------------------------------|----------------------------------|
----------------------------------|----------------------------------|
...So Unscrew My Head...

                                                                      
--5-5-5-5-5-5-5-5-5-5-5-5-5-5-5-5-|--3-3-3-3-3-3-3-3-3-3-3-3-3-3-3-3-| x2 
--3-3-3-3-3-3-3-3-3-3-3-3-3-3-3-3-|--1-1-1-1-1-1-1-1-1-1-1-1-1-1-1-1-|from 
--3-3-3-3-3-3-3-3-3-3-3-3-3-3-3-3-|--2-2-2-2-2-2-2-2-2-2-2-2-2-2-2-2-|dollar
----------------------------------|----------------------------------|($)
----------------------------------|----------------------------------|
----------------------------------|----------------------------------|
...And Rinse It Out...



Outro                                                               
-----------------------10-----|---------5----------------------|
---------10------------10-----|---------5----------------------|
---------10------------10-----|---------5----------------------|
--0-0--0-----0--8-8--8-----8--|--3-3--3----3-------------------|
--0-0--0-----0--8-8--8-----8--|--3-3--3----3----------10-------|
--0-0--0-----0--8-8--8-----8--|--3-3--3----3--7-7-5-7----7-5-3-|
..So I hold My Breath Till My Heart Ex...plodes!!!...

                                                                
-----------------------10-----|---------5----------------------|
---------10------------10-----|---------5----------------------|
---------10------------10-----|---------5----------------------|
--0-0--0-----0--8-8--8-----8--|--3-3--3----3--7-7-5-6-7--------|
--0-0--0-----0--8-8--8-----8--|--3-3--3----3------------5------|
--0-0--0-----0--8-8--8-----8--|--3-3--3----3--------------7-5--|


                                                               
-----------------------10-----|---------5----------------------|
---------10------------10-----|---------5----------------------|
---------10------------10-----|---------5----------------------|
--0-0--0-----0--8-8--8-----8--|--3-3--3----3-------------------|
--0-0--0-----0--8-8--8-----8--|--3-3--3----3----------10-------|
--0-0--0-----0--8-8--8-----8--|--3-3--3----3--7-7-5-7----7-5-3-|

                                                               
-----------------------10-----|---------5-------------------------|
---------10------------10-----|---------5-------------------------|
---------10------------10-----|---------5-------------------------|
--0-0--0-----0--8-8--8-----8--|--3-3--3----3--7-7-5-6-7--------0--|
--0-0--0-----0--8-8--8-----8--|--3-3--3----3------------5------0--|
--0-0--0-----0--8-8--8-----8--|--3-3--3----3--------------7-5--0--|
           ...cause this is how it is and this is how it GOES!!!...
Tap to rate this tab
# A B C D E F G H I J K L M N O P Q R S T U V W X Y Z