Song name
# A B C D E F G H I J K L M N O P Q R S T U V W X Y Z

Billy Talent - River Below tab

-------------------------------------------------------------------------------
			     River Below - Billy Talent
-------------------------------------------------------------------------------
Tabbed by: Andres (silvadolla) Ali
Email: andres.ali@gmail.com

Tuning: EADGBE

I found a bunch of tabs for this song, they all were kinda shaky. I tabbed this for 
tuning,
I think the band plays this song in Drop D though.

The intro might trip you up a bit at first, but practice it for a bit.

INTRO:
e|---------------------------------------------------------------------------|
B|--------------3------------------------------------------------------------|
G|---------3---------3----------8-7-5----------------------------------------|
D|-----5-5---5-----5---5---------------8-7-5---------------------------------|
A|---------------------------------------------8-6---------------------------|
E|---------------------------------------------------------------------------| x2


Verse x2:


e|---------------------------------------------------------------------------|
B|---------------------------------------------------------------------------|
G|---4-----x----4--------------5---5-----------------------------------------|
D|---5-----5----5-------7--8---5---5-----------------------------------------|
A|---5-----5----5-------5--5---5---3-----------------------------------------|
E|---3-----3----3------------------------------------------------------------| x2

e|---------------------------------------------------------------------------|
B|---------------------------------------------------------------------------|
G|--4-----x----4-----------------------------------5-5-5-5-5-5-5-5-----------|
D|--5-----5----5-------7---5----7----8--8--8--8----5-5-5-5-5-5-5-5-----------|
A|--5-----5----5-------5-----8--5----8--8--8--8----3-3-3-3-3-3-3-3-----------|
E|--3-----3----3---------------------6--6--6--6------------------------------|

Pre-Chorus(clean): Arpeggiated Chords Cm, Eb, Bb, D

e|-------------------------------------------------------------------------|
B|---------4-----------8-----------3------------7--------------------------|
G|-------5-----------8-----------3------------7----------------------------|
D|-----5-----------8-----------3------------7------------------------------|
A|---3-----------6-----------1------------5--------------------------------|
E|-------------------------------------------------------------------------|

e|-------------------------------------------------------------------------|
B|---------4-----------8-----------3---------------------------------------|
G|-------5-----------8-----------3-------*7--------------------------------|
D|-----5-----------8-----------3----------7--------------------------------|
A|---3-----------6-----------1------------5--------------------------------|
E|-------------------------------------------------------------------------|

*I crank up distortion at that point

Chorus: x2

e|---------------------------------------------------------------------------|
B|---------------------------------------------------------------------------|
G|----------------------7-7-7-7--7-7-7-7---8-8-8-8--8-8-8-8------------------|
D|---5-5-5-5--5-5-5-5---7-7-7-7--7-7-7-7---8-8-8-8--8-8-8-8------------------|
A|---5-5-5-5--5-5-5-5---x-5-5-5--5-5-5-5---x-6-6-6--6-6-6-6------------------|
E|---x-3-3-3--3-3-3-3--------------------------------------------------------|

e|-----------------------------------------------------------------------|
B|-----------------------------------------------------------------------|
G|--3-3-3-3--3-3-3-3-----5-5-5-5-------------7-7-7-7---8-8-8-8-----------|
D|--3-3-3-3--3-3-3-3-----5-5-5-5---5-5-5-5---7-7-7-7---8-8-8-8-----------|
A|--x-1-1-1--1-1-1-1-----3-3-3-3---5-5-5-5---5-5-5-5---6-6-6-6-----------|
E|---------------------------------3-3-3-3-------------------------------|

After you play chorus for second time, go back to the intro

Rhythm Fill

e|-----------------------------------------------------------------------|
B|-----------------------------------------------------------------------|
G|--3-3-3-3--3-3-3-3-----5-5-5-5-------------7-7-7-7---8-8-8-8-----------|
D|--3-3-3-1--1-1-1-1-----5-5-5-5---5-5-5-5---7-7-7-7---8-8-8-8-----------|
A|--x-1-1-1--1-1-1-1-----3-3-3-3---5-5-5-5---5-5-5-5---6-6-6-6-----------|
E|---------------------------------3-3-3-3-------------------------------|

2nd Fill

e|-----------------------------------------|
B|--------------3--------------------------|
G|---------3---------3---------------------|
D|-----5-5---5-----5---5hold---------------|
A|-----------------------------------------|
E|-----------------------------------------| x4

Chorus: x2

e|---------------------------------------------------------------------------|
B|---------------------------------------------------------------------------|
G|----------------------7-7-7-7--7-7-7-7---8-8-8-8--8-8-8-8------------------|
D|---5-5-5-5--5-5-5-5---7-7-7-7--7-7-7-7---8-8-8-8--8-8-8-8------------------|
A|---5-5-5-5--5-5-5-5---x-5-5-5--5-5-5-5---x-6-6-6--6-6-6-6------------------|
E|---x-3-3-3--3-3-3-3--------------------------------------------------------|

e|-------------------------------------------------------------------------|
B|-------------------------------------------------------------------------|
G|--3-3-3-3--3-3-3-3-----5--5--5-5--------------7-7-7-7---8-8-8-8----------|
D|--3-3-3-3--3-3-3-3-----5--5--5-5---5-5--5-5---7-7-7-7---8-8-8-8----------|
A|--x-1-1-1--1-1-1-1-----3--3--3-3---5-5--5-5---5-5-5-5---6-6-6-6----------|
E|-----------------------------------3-5--3-3------------------------------|

Rhythm Fill

e|----------------------------------------------------------------------|
B|----------------------------------------------------------------------|
G|--3-3-3-3--3-3-3-3-----5-5-5-5-------------7-7-7-7---8-8-8-8----------|
D|--3-3-3-1--3-3-3-3-----5-5-5-5---5-5-5-5---7-7-7-7---8-8-8-8----------|
A|--x-1-1-1--1-1-1-1-----3-3-3-3---5-5-5-5---5-5-5-5---6-6-6-6----------|
E|---------------------------------3-3-3-3------------------------------| x3

Outro:

e|---------------------------------------------------------------------------|
B|--------------3------------------------------------------------------------|
G|---------3---------3----------8-7-5----------------------------------------|
D|-----5-5---5-----5---5---------------8-7-5---------------------------------|
A|---------------------------------------------8-6---------------------------|
E|---------------------------------------------------------------------------| Fine

That's it you're done. I think this version sounds a hell of a lot better than other 
and it's easier
to finger. I'm going to try to tab Standing in the Rain next.

Any questions, comments, or corrections, please email me at andres.ali@gmail.com. Thanks


| /  slide up
| \  slide down
| h  hammer-on
| p  pull-off
| ~  vibrato
| +  harmonic
| x  Mute note
===============================================================================
Tap to rate this tab
# A B C D E F G H I J K L M N O P Q R S T U V W X Y Z