Song name
# A B C D E F G H I J K L M N O P Q R S T U V W X Y Z

Billy Talent - Prisoners Of Today tab

Dropped-d
|---------------------------------|---------------------------------|
|---------------------------------|---------------------------------|
|---8-----7-----5-------5---5---5-|---7-----5-----3-------3---3---3-|
|-5---5-5---5-5---5-5-8---7---5---|-3---3-3---3-3---3-3-7---5---3---|
|---------------------------------|---------------------------------|
|---------------------------------|---------------------------------|

|---------------------------------|---------------------------------|
|---------------------------------|---------------------------------|
|-2-2-2-5-2-2-5-2-2-5-2-2-5br-----|-2-2-2-5-2-2-5-2-2-5-2-2-5b------|
|-0-0-0-0-0-0-0-0-0-0-0-0-0---0-0-|-3-3-3-3-3-3-3-3-3-3-3-3---------|
|---------------------------------|---------------------------------|
|---------------------------------|---------------------------------|




I dunno how they would do this live cuz theres only 1 guitarist =P

Guitar 1           PLAYED WITH BELOW  
|---------------------------------|---------------------------------|
|---------------------------------|---------------------------------|
|---------------------------------|---------------------------------|
|-5-5-5-5-5-5-5-5-5-5-5-5-5-5-5-5-|-3-3-3-3-3-3-3-3-3-3-3-3-3-3-3-3-|
|-5-5-5-5-5-5-5-5-5-5-5-5-5-5-5-5-|-3-3-3-3-3-3-3-3-3-3-3-3-3-3-3-3-|
|-5-5-5-5-5-5-5-5-5-5-5-5-5-5-5-5-|-3-3-3-3-3-3-3-3-3-3-3-3-3-3-3-3-|

|---------------------------------|---------------------------------|
|---------------------------------|---------------------------------|
|---------------------------------|---------------------------------|
|-0-0-0-0-0-0-0-0-0-0-0-0-0-0-0-0-|-3-3-3-3-3-3-3-3-3-3-3-3-3-3-3-3-|
|-0-0-0-0-0-0-0-0-0-0-0-0-0-0-0-0-|-3-3-3-3-3-3-3-3-3-3-3-3-3-3-3-3-|
|-0-0-0-0-0-0-0-0-0-0-0-0-0-0-0-0-|-3-3-3-3-3-3-3-3-3-3-3-3-3-3-3-3-|

Guitar 2            PLAYED WITH ABOVE
|---------------------------------|---------------------------------|
|---------------------------------|---------------------------------|
|-8-8-8-7-7-7-5-5-5-3-3-3-2-2-0-0-|-7-7-7-5-5-5-3-3-3-2-2-2-0-0-----|
|---------------------------------|-----------------------------3-3-|
|---------------------------------|---------------------------------|
|---------------------------------|---------------------------------|

|---------------------------------|---------------------------------|
|---------------------------------|---------------------------------|
|-2-2-2-5-2-2-5-2-2-5-2-2-5br-----|-2-2-2-5-2-2-5-2-2-5-2-2-5br-----|
|-0-0-0-0-0-0-0-0-0-0-0-0-0---0-0-|-3-3-3-3-3-3-3-3-3-3-3-3-----3-3-|
|---------------------------------|---------------------------------|
|---------------------------------|---------------------------------|



|---------------------------------|---------------------------------|
|---------------------------------|---------------------------------|
|---------------------------------|---------------------------------|
|-----------------7-7-------------|-5-5-------------7-7-------------|
|-5-5---------3-3-5-5---------3-3-|-5-5---------3-3-5-5---------3-3-|
|---------------------------------|---------------------------------|

     8
the  7 part is right but..
i dont think the 7 and 7 part is rite tho ..
                 7     5

|---------------------------------|---------------------------------|
|-------8-8-----------------------|---------------------------------|
|-------7-7-------------7-7-------|-------7-7-------------7-7-------|
|-8-8-------------7-7---7-7-------|-5-5---5-5-------7-7---7-7-------|
|-5-5---------3-3-5-5---------3-3-|-5-5---------3-3-5-5---------3-3-|
|---------------------------------|---------------------------------|

|---------------------------------|---------------------------------|
|-------8-8-----------------------|---------------------------------|
|-------7-7-------------7-7-------|-------7-7-------------7-7-------|
|-8-8-------------7-7---7-7-------|-5-5---5-5-------7-7---7-7-------|
|-5-5---------3-3-5-5---------3-3-|-5-5---------3-3-5-5---------3-3-|
|---------------------------------|---------------------------------|

|---------------------------------|---------------------------------|
|-------8-8-----------------------|---------------------------------|
|-------7-7-------------7-7-------|-------7-7-------------7-7-------|
|-8-8-------------7-7---7-7-------|-5-5---5-5-------7-7---7-7-------|
|-5-5---------3-3-5-5---------3-3-|-5-5---------3-3-5-5---------3-3-|
|---------------------------------|---------------------------------|





|---------------------------------|---------------------------------|
|---------------------------------|---------------------------------|
|---8-----7-----5-------5---5---5-|---7-----5-----3-------3---3---3-|
|-5---5-5---5-5---5-5-8---7---5---|-3---3-3---3-3---3-3-7---5---3---|
|---------------------------------|---------------------------------|
|---------------------------------|---------------------------------|

|---------------------------------|---------------------------------|
|---------------------------------|---------------------------------|
|-2-2-2-5-2-2-5-2-2-5-2-2-5br-----|-2-2-2-5-2-2-5-2-2-5-2-2-5b------|
|-0-0-0-0-0-0-0-0-0-0-0-0-0---0-0-|-3-3-3-3-3-3-3-3-3-3-3-3---------|
|---------------------------------|---------------------------------|
|---------------------------------|---------------------------------|

                                                   


|---------------------------------|---------------------------------|
|-------8-8-----------------------|---------------------------------|
|-------7-7-------------7-7-------|-------7-7-------------7-7-------|
|-8-8-------------7-7---7-7-------|-5-5---5-5-------7-7---7-7-------|
|-5-5---------3-3-5-5---------3-3-|-5-5---------3-3-5-5---------3-3-|
|---------------------------------|---------------------------------|

|---------------------------------|---------------------------------|
|---------------------------------|---------------------------------|
|---------------------------------|---------------------------------|
|-----------------7-7-------------|-5-5-------------7-7-------------|
|-5-5---------3-3-5-5---------3-3-|-5-5---------3-3-5-5---------3-3-|
|---------------------------------|---------------------------------|

|---------------------------------|---------------------------------|
|-------8-8-----------------------|---------------------------------|
|-------7-7-------------7-7-------|-------7-7-------------7-7-------|
|-8-8-------------7-7---7-7-------|-5-5---5-5-------7-7---7-7-------|
|-5-5---------3-3-5-5---------3-3-|-5-5---------3-3-5-5---------3-3-|
|---------------------------------|---------------------------------|

|---------------------------------|---------------------------------|
|-------8-8-----------------------|---------------------------------|
|-------7-7-------------7-7-------|-------7-7-------------7-7-------|
|-8-8-------------7-7---7-7-------|-5-5---5-5-------7-7---7-7-------|
|-5-5---------3-3-5-5---------3-3-|-5-5---------3-3-5-5---------3-3-|
|---------------------------------|---------------------------------|

|---------------------------------|---------------------------------|
|-------8-8-----------------------|---------------------------------|
|-------7-7-------------7-7-------|-------7-7-------------7-7-------|
|-8-8-------------7-7---7-7-------|-5-5---5-5-------7-7---7-7-------|
|-5-5---------3-3-5-5---------3-3-|-5-5---------3-3-5-5---------3-3-|
|---------------------------------|---------------------------------|




|---------------------------------|---------------------------------|
|---------------------------------|---------------------------------|
|---8-----7-----5-------5---5---5-|---7-----5-----3-------3---3---3-|
|-5---5-5---5-5---5-5-8---7---5---|-3---3-3---3-3---3-3-7---5---3---|
|---------------------------------|---------------------------------|
|---------------------------------|---------------------------------|

|---------------------------------|---------------------------------|
|---------------------------------|---------------------------------|
|-2-2-2-5-2-2-5-2-2-5-2-2-5br-----|-2-2-2-5-2-2-5-2-2-5-2-2-5b------|
|-0-0-0-0-0-0-0-0-0-0-0-0-0---0-0-|-3-3-3-3-3-3-3-3-3-3-3-3---------|
|---------------------------------|---------------------------------|
|---------------------------------|---------------------------------|




Guitar 1       PLAYED WITH BELOW           PLAY TWICE
|---------------------------------|---------------------------------|
|---------------------------------|---------------------------------|
|---------------------------------|---------------------------------|
|-5-5-5-5-5-5-5-5-5-5-5-5-5-5-5-5-|-3-3-3-3-3-3-3-3-3-3-3-3-3-3-3-3-|
|-5-5-5-5-5-5-5-5-5-5-5-5-5-5-5-5-|-3-3-3-3-3-3-3-3-3-3-3-3-3-3-3-3-|
|-5-5-5-5-5-5-5-5-5-5-5-5-5-5-5-5-|-3-3-3-3-3-3-3-3-3-3-3-3-3-3-3-3-|

|---------------------------------|---------------------------------|
|---------------------------------|---------------------------------|
|---------------------------------|---------------------------------|
|-0-0-0-0-0-0-0-0-0-0-0-0-0-0-0-0-|-3-3-3-3-3-3-3-3-3-3-3-3-3-3-3-3-|
|-0-0-0-0-0-0-0-0-0-0-0-0-0-0-0-0-|-3-3-3-3-3-3-3-3-3-3-3-3-3-3-3-3-|
|-0-0-0-0-0-0-0-0-0-0-0-0-0-0-0-0-|-3-3-3-3-3-3-3-3-3-3-3-3-3-3-3-3-|

Guitar 2        PLAYED WITH ABOVE          PLAY TWICE
|---------------------------------|---------------------------------|
|---------------------------------|---------------------------------|
|-8-8-8-7-7-7-5-5-5-3-3-3-2-2-0-0-|-7-7-7-5-5-5-3-3-3-2-2-2-0-0-----|
|---------------------------------|-----------------------------3-3-|
|---------------------------------|---------------------------------|
|---------------------------------|---------------------------------|

|---------------------------------|---------------------------------|
|---------------------------------|---------------------------------|
|-2-2-2-5-2-2-5-2-2-5-2-2-5br-----|-2-2-2-5-2-2-5-2-2-5-2-2-5br-----|
|-0-0-0-0-0-0-0-0-0-0-0-0-0---0-0-|-3-3-3-3-3-3-3-3-3-3-3-3-----3-3-|
|---------------------------------|---------------------------------|
|---------------------------------|---------------------------------|


PLAY TWICE
|---------------------------------|---------------------------------|
|---------------------------------|-6-6---6-6--6--------------------|
|-5-5---5-5--5----3-3---3-3--3----|-7-7---7-7--7----8-8---8-8--8----|
|-5-5---5-5--5----3-3---3-3--3----|-7-7---7-7--7----8-8---8-8--8----|
|-3-3---3-3--3----1-1---1-1--1----|-5-5---5-5--5----6-6---6-6--6----|
|---------------------------------|-----------------8-8---8-8--8----|

PLAY TWICE
|---------------------------------|---------------------------------|
|---------------------------------|-6-6-6-6-6-6-6-6-----------------|
|-5-5-5-5-5-5-5-5-3-3-3-3-3-3-3-3-|-7-7-7-7-7-7-7-7-8-8-8-8-8-8-8-8-|
|-5-5-5-5-5-5-5-5-3-3-3-3-3-3-3-3-|-7-7-7-7-7-7-7-7-8-8-8-8-8-8-8-8-|
|-3-3-3-3-3-3-3-3-1-1-1-1-1-1-1-1-|-5-5-5-5-5-5-5-5-6-6-6-6-6-6-6-6-|
|---------------------------------|-----------------8-8-8-8-8-8-8-8-|




PLAY TWICE
|---------------------------------|---------------------------------|
|---------------------------------|---------------------------------|
|---8-----7-----5-------5---5---5-|---7-----5-----3-------3---3---3-|
|-5---5-5---5-5---5-5-8---7---5---|-3---3-3---3-3---3-3-7---5---3---|
|---------------------------------|---------------------------------|
|---------------------------------|---------------------------------|

|---------------------------------|---------------------------------|
|---------------------------------|---------------------------------|
|-2-2-2-5-2-2-5-2-2-5-2-2-5br-----|-2-2-2-5-2-2-5-2-2-5-2-2-5b------|
|-0-0-0-0-0-0-0-0-0-0-0-0-0---0-0-|-3-3-3-3-3-3-3-3-3-3-3-3---------|
|---------------------------------|---------------------------------|
|---------------------------------|---------------------------------|




Guitar 1       PLAYED WITH BELOW       PLAY UNTIL THE END
|---------------------------------|---------------------------------|
|---------------------------------|---------------------------------|
|---------------------------------|---------------------------------|
|-5-5-5-5-5-5-5-5-5-5-5-5-5-5-5-5-|-3-3-3-3-3-3-3-3-3-3-3-3-3-3-3-3-|
|-5-5-5-5-5-5-5-5-5-5-5-5-5-5-5-5-|-3-3-3-3-3-3-3-3-3-3-3-3-3-3-3-3-|
|-5-5-5-5-5-5-5-5-5-5-5-5-5-5-5-5-|-3-3-3-3-3-3-3-3-3-3-3-3-3-3-3-3-|

|---------------------------------|---------------------------------|
|---------------------------------|---------------------------------|
|---------------------------------|---------------------------------|
|-0-0-0-0-0-0-0-0-0-0-0-0-0-0-0-0-|-3-3-3-3-3-3-3-3-3-3-3-3-3-3-3-3-|
|-0-0-0-0-0-0-0-0-0-0-0-0-0-0-0-0-|-3-3-3-3-3-3-3-3-3-3-3-3-3-3-3-3-|
|-0-0-0-0-0-0-0-0-0-0-0-0-0-0-0-0-|-3-3-3-3-3-3-3-3-3-3-3-3-3-3-3-3-|

Guitar 2        PLAYED WITH ABOVE       PLAY UNTIL THE END
|---------------------------------|---------------------------------|
|---------------------------------|---------------------------------|
|-8-8-8-7-7-7-5-5-5-3-3-3-2-2-0-0-|-7-7-7-5-5-5-3-3-3-2-2-2-0-0-----|
|---------------------------------|-----------------------------3-3-|
|---------------------------------|---------------------------------|
|---------------------------------|---------------------------------|

|---------------------------------|---------------------------------|
|---------------------------------|---------------------------------|
|-2-2-2-5-2-2-5-2-2-5-2-2-5br-----|-2-2-2-5-2-2-5-2-2-5-2-2-5br-----|
|-0-0-0-0-0-0-0-0-0-0-0-0-0---0-0-|-3-3-3-3-3-3-3-3-3-3-3-3-----3-3-|
|---------------------------------|---------------------------------|
|---------------------------------|---------------------------------|

Tap to rate this tab
# A B C D E F G H I J K L M N O P Q R S T U V W X Y Z