Song name
# A B C D E F G H I J K L M N O P Q R S T U V W X Y Z

Billy Talent - Navy Song tab

Song: The Navy Song
Band: Billy Talent
Tabbed by: Patrick Cederberg (pat.cederberg@rogers.com)
Tuning: Drop D (D A D G B e)

Did this because the other ones I've seen are lacking in areas.  This is 100% correct 
works for me perfectly when I play along with the song.  Enjoy.

Intro

e|------------------------12------10--------------------------|
B|--------10------12----------------------12------10------12--|
G|------9----9-------9-------9-------9-------9-------9--------|
D|-10----------10------10------10------10------10------10-----|
A|------------------------------------------------------------|
D|------------------------------------------------------------|

e|----------------------8-----7-------------------------|
B|----------7-----8-----------------8-----7-------------|
G|--------5---5-----5-----5-----5-----5-----5---5---5---|
D|-10/7---------7-----7-----7-----7-----7-----7---7-----|
A|------------------------------------------------------|
D|------------------------------------------------------|

e|------------------------12------10--------------------------|
B|--------10------12----------------------12------10------12--|
G|------9----9-------9-------9-------9-------9-------9--------|
D|-10----------10------10------10------10------10------10-----|
A|------------------------------------------------------------|
D|------------------------------------------------------------|

e|----------------------8-----7-----------------------|
B|----------7-----8-----------------8-----777777------|
G|--------5---5-----5-----5-----5-----5---555555------|
D|-10/7---------7-----7-----7-----7-----7-777777------|
A|----------------------------------------------------|
D|----------------------------------------------------|

Verse

e|-----------------------------------------------------|
B|--8------------------------5-------------------------|
G|--7------------------------4-------------------------|
D|--5------------------------5-------------------------|x2
A|-----------------------------------------------------|
D|-----------------------------------------------------|

e|-----------------------------777777-555555-333333-555555---|
B|--333333333333-555555-777777-888888-777777-555555-777777---|
G|--000000000000-000000-000000-------------------------------|
D|-----------------------------------------------------------|
A|-----------------------------------------------------------|
D|-----------------------------------------------------------|

e|-----------------------------------------------------|
B|--8------------------------5-------------------------|
G|--7------------------------4-------------------------|
D|--5------------------------5-------------------------|x2
A|-----------------------------------------------------|
D|-----------------------------------------------------|

Pre-Chorus

e|------------------------12------10--------------------------|
B|--------10------12----------------------12------10------12--|
G|------9----9-------9-------9-------9-------9-------9--------|
D|-10----------10------10------10------10------10------10-----|
A|------------------------------------------------------------|
D|------------------------------------------------------------|

e|----------------------8-----7-------------------------|
B|----------7-----8-----------------8-----7-------------|
G|--------5---5-----5-----5-----5-----5-----5---5---5---|
D|-10/7---------7-----7-----7-----7-----7-----7---7-----|
A|------------------------------------------------------|
D|------------------------------------------------------|

e|-------------------7-----5----------------------|
B|-------5-----7-----------------7-----5-----7----|
G|-----4---4-----4-----4-----4-----4-----4--------|
D|-5---------5-----5-----5-----5-----5-----5------|
A|------------------------------------------------|
D|------------------------------------------------|

e|-------------------------------------------------|
B|-------------------------------------------------|
G|-----6-6--66-6-6--66-7-7--77-6-6-6---------------|
D|-----4-4--44-4-4--44-4-4--44-4-4-4---------------|
A|-----4-4--44-4-4--44-4-4--44-4-4-4---------------|
D|-------------------------------------------------|

Chorus (X2)

e|------------------------------------------------------------------------|
B|------------------------------------------------------------------------|
G|--444444444444666666777777----------------------------------------------|
D|--444444444444666666777777--55---------55---------55---------55---------|
A|--222222222222444444555555--55--5-4-0--55--7-5-0--55--5-4-0--55--7-5-0--|
D|----------------------------55---------55---------55---------55---------|

e|------------------------------------------------------------|
B|------------------------------------------------------------|
G|-666666777777999999111111----(those are elevens)------------|
D|-000000000000000000000000---4-4--44-4-4--44-5-5--55-444444--|
A|-000000000000000000000000---4-4--44-4-4--44-5-5--55-444444--|
D|----------------------------4-4--44-4-4--44-5-5--55-444444--|

Bridge

e|----------------------777777-555555-333333-555555---|
B|--3----5----7----8----888888-777777-555555-777777---|
G|--0----0----0----0----------------------------------|
D|----------------------------------------------------|
A|----------------------------------------------------|
D|----------------------------------------------------|

Verse 2

e|-----------------------------------------------------|
B|--8------------------------5-------------------------|
G|--7------------------------4-------------------------|
D|--5------------------------5-------------------------|x2
A|-----------------------------------------------------|
D|-----------------------------------------------------|

Pre-Chorus

e|------------------------12------10--------------------------|
B|--------10------12----------------------12------10------12--|
G|------9----9-------9-------9-------9-------9-------9--------|
D|-10----------10------10------10------10------10------10-----|
A|------------------------------------------------------------|
D|------------------------------------------------------------|

e|----------------------8-----7-------------------------|
B|----------7-----8-----------------8-----7-------------|
G|--------5---5-----5-----5-----5-----5-----5---5---5---|
D|-10/7---------7-----7-----7-----7-----7-----7---7-----|
A|------------------------------------------------------|
D|------------------------------------------------------|

e|-------------------7-----5----------------------|
B|-------5-----7-----------------7-----5-----7----|
G|-----4---4-----4-----4-----4-----4-----4--------|
D|-5---------5-----5-----5-----5-----5-----5------|
A|------------------------------------------------|
D|------------------------------------------------|

e|-------------------------------------------------|
B|-------------------------------------------------|
G|-----6-6--66-6-6--66-7-7--77-6-6-6---------------|
D|-----4-4--44-4-4--44-4-4--44-4-4-4---------------|
A|-----4-4--44-4-4--44-4-4--44-4-4-4---------------|
D|-------------------------------------------------|

Chorus (X2)

e|------------------------------------------------------------------------|
B|------------------------------------------------------------------------|
G|--444444444444666666777777----------------------------------------------|
D|--444444444444666666777777--55---------55---------55---------55---------|
A|--222222222222444444555555--55--5-4-0--55--7-5-0--55--5-4-0--55--7-5-0--|
D|----------------------------55---------55---------55---------55---------|

e|------------------------------------------------------------|
B|------------------------------------------------------------|
G|-666666777777999999111111----(those are elevens)------------|
D|-000000000000000000000000---4-4--44-4-4--44-5-5--55-444444--|
A|-000000000000000000000000---4-4--44-4-4--44-5-5--55-444444--|
D|----------------------------4-4--44-4-4--44-5-5--55-444444--|

Break

e|--------------------------------777777-555555-333333-555555---|
B|--3-3333-5-5555-7-7777-8-8888---888888-777777-555555-777777---|
G|--0-0000-0-0000-0-0000-0-0000---------------------------------|
D|--------------------------------------------------------------|x3
A|--------------------------------------------------------------|
D|--------------------------------------------------------------|

Break End (In heaven, I will wait...)

e|--------------------------------777777-555555-333333-555555---|
B|--8-8888-7-7777-5-5555-3-3333---888888-777777-555555-777777---|
G|--0-0000-0-0000-0-0000-0-0000---------------------------------|
D|--------------------------------------------------------------|x3
A|--------------------------------------------------------------|
D|--------------------------------------------------------------|

Final Chorus (x4)

e|------------------------------------------------------------------------|
B|------------------------------------------------------------------------|
G|--444444444444666666777777----------------------------------------------|
D|--444444444444666666777777--55---------55---------55---------55---------|
A|--222222222222444444555555--55--5-4-0--55--7-5-0--55--5-4-0--55--7-5-0--|
D|----------------------------55---------55---------55---------55---------|

e|------------------------------------------------------------|
B|------------------------------------------------------------|
G|-666666777777999999111111----(those are elevens)------------|
D|-000000000000000000000000---4-4--44-4-4--44-5-5--55-444444--|
A|-000000000000000000000000---4-4--44-4-4--44-5-5--55-444444--|
D|----------------------------4-4--44-4-4--44-5-5--55-444444--|

Outro

e|----------------------7----5----3----5--------|
B|--3----5----7----8----8----7----5----7----8---|
G|--0----0----0----0------------------------7---|
D|------------------------------------------5---|
A|----------------------------------------------|
D|----------------------------------------------|

Please note that the second time through the final chorus, the 5-4-0 and 7-5-0 are not 
after the dual power chords.

If you have any questions or concerns, email me at pat.cederberg@rogers.com
Tap to rate this tab
# A B C D E F G H I J K L M N O P Q R S T U V W X Y Z