Song name
# A B C D E F G H I J K L M N O P Q R S T U V W X Y Z

Billy Talent - Burn The Evidence tab

Help us improve GuitareTab! Take a short survey!
For the most part there are already good tabs out there for this song, but if you're 
me, then some of the chords sound a little off.  You can read this straight from top to 
too.  No needing to scroll back up when a section repeats.


e|---------------|----------------------|------------------|-----------------|
B|----------6----|--h7/10--------10-----|-----------10-----|-----------10----|
G|-------0-------|-----------0----------|--------0---------|--------0--------|
D|-----7---------|--------10------------|-----10-----------|-----10----------|
A|--5------------|----------------------|--8---------------|--0--------------|
D|---------------|----------------------|------------------|-----------------|


e|-----------------------------------|---------------------------------------|
B|---------------10------------------|---------------10----------------------|
G|-----------0--------------0--------|-----------0--------------0------------|
D|---------8--------8-----0-------0--|---------8--------8-----0-------0------|
A|----10----------------8-----8------|--8h10----------------8-----8----------|
D|-----------------------------------|---------------------------------------|

e|-----------------------------------|---------------------------------------|
B|---------------10------------------|------------5---------------8----------|
G|-----------0--------------0--------|--------0------------------------------|
D|---------8--------8-----0-------0--|------5-----------------5--------------|
A|--8h10----------------8-----8------|--3-----------3-------5----------------|
D|-----------------------------------|------------------5--------------------|

e|-----------------------------------|---------------------------------------|
B|---------------10------------------|---------------10----------------------|
G|-----------0--------------0--------|-----------0--------------0------------|
D|---------8--------8-----0-------0--|---------8--------8-----0-------0------|
A|--7/10----------------8-----8------|--8h10----------------8-----8----------|
D|-----------------------------------|---------------------------------------|


e|-----------------------------------|--0------------------------------------|
B|---------------10------------------|--5------------------------------------|
G|-----------0--------------0--------|--3------------------------------------|
D|---------8--------8-----0-------0--|--5------------------------------------|
A|--8h10----------------8-----8------|---------------------------------------|
D|-----------------------------------|---------------------------------------|


PRE-CHORUS:


e|---------------------------------------------------------------------------|
B|--6---6-6------8---8-8------5-5-5-5-5-5-5-5------6---6-6-------------------|
G|--7---7-7------6---6-6------0-0-0-0-0-0-0-0------7---7-7-------------------|
D|--7---7-7------8---8-8------7-7-7-7-7-7-7-7------7---7-7-------------------|
A|--5---5-5------7---7-7------4-4-0-0-4-4-0-4------5---5-5-------------------|
D|---------------------------------------------------------------------------|


e|---------------------------------------------------------------------------|
B|--6---6-6------8---8-8------5-5-5-5-5---5-5------6---6-6-------------------|
G|--7---7-7------6---6-6------0-0-0-0-0---0-0------7---7-7-------------------|
D|--7---7-7------8---8-8------7-7-7-7-7---7-7------7---7-7-------------------|
A|--5---5-5------7---7-7------4-4-0-0-4---0-4------5---5-5-------------------|
D|---------------------------------------------------------------------------|


e|---------------------------------------------------------------------------|
B|--6---6-6------8---8-8------5-------------3--------------------------------|
G|--7---7-7------6---6-6------5-------------3--------------------------------|
D|--7---7-7------8---8-8------5-------------3--------------------------------|
A|--5---5-5------7---7-7------3-------------1--------------------------------|
D|---------------------------------------------------------------------------|


INTERLUDE:
                                                                           x2
e|---------------|--------------0------|-----------0------|-----------0------|
B|----------6----|--h7/10-------10-----|-----------10-----|-----------10-----|
G|-------0-------|-----------0---------|--------0---------|--------0---------|
D|-----7------7--|--------10-------10--|-----10-------10--|-----10-------10--|
A|--5------------|---------------------|--8---------------|--0---------------|
D|---------------|---------------------|------------------|------------------|


VERSE:


e|---------------|----------------------|------------------|-----------------|
B|----------6----|--h7/10--------10-----|-----------10-----|-----------10----|
G|-------0-------|-----------0----------|--------0---------|--------0--------|
D|-----7---------|--------10------------|-----10-----------|-----10----------|
A|--5------------|----------------------|--8---------------|--0--------------|
D|---------------|----------------------|------------------|-----------------|


e|-----------------------------------|---------------------------------------|
B|---------------10------------------|---------------10----------------------|
G|-----------0--------------0--------|-----------0--------------0------------|
D|---------8--------8-----0-------0--|---------8--------8-----0-------0------|
A|----10----------------8-----8------|--8h10----------------8-----8----------|
D|-----------------------------------|---------------------------------------|

e|-----------------------------------|---------------------------------------|
B|---------------10------------------|------------5---------------8----------|
G|-----------0--------------0--------|--------0------------------------------|
D|---------8--------8-----0-------0--|------5-----------------5--------------|
A|--8h10----------------8-----8------|--3-----------3-------5----------------|
D|-----------------------------------|------------------5--------------------|

e|-----------------------------------|---------------------------------------|
B|---------------10------------------|---------------10----------------------|
G|-----------0--------------0--------|-----------0--------------0------------|
D|---------8--------8-----0-------0--|---------8--------8-----0-------0------|
A|--7/10----------------8-----8------|--8h10----------------8-----8----------|
D|-----------------------------------|---------------------------------------|


e|-----------------------------------|--0------------------------------------|
B|---------------10------------------|--5------------------------------------|
G|-----------0--------------0--------|--3------------------------------------|
D|---------8--------8-----0-------0--|--5------------------------------------|
A|--8h10----------------8-----8------|---------------------------------------|
D|-----------------------------------|---------------------------------------|

PRE-CHORUS:


e|---------------------------------------------------------------------------|
B|--6---6-6------8---8-8------5-5-5-5-5-5-5-5------6---6-6-------------------|
G|--7---7-7------6---6-6------0-0-0-0-0-0-0-0------7---7-7-------------------|
D|--7---7-7------8---8-8------7-7-7-7-7-7-7-7------7---7-7-------------------|
A|--5---5-5------7---7-7------4-4-0-0-4-4-0-4------5---5-5-------------------|
D|---------------------------------------------------------------------------|


e|---------------------------------------------------------------------------|
B|--6---6-6------8---8-8------5-5-5-5-5---5-5------6---6-6-------------------|
G|--7---7-7------6---6-6------0-0-0-0-0---0-0------7---7-7-------------------|
D|--7---7-7------8---8-8------7-7-7-7-7---7-7------7---7-7-------------------|
A|--5---5-5------7---7-7------4-4-0-0-4---0-4------5---5-5-------------------|
D|---------------------------------------------------------------------------|


e|---------------------------------------------------------------------------|
B|--6---6-6------8---8-8------5-5-5-5-5---5-5------6---6-6-6-6-6-------------|
G|--7---7-7------6---6-6------0-0-0-0-0---0-0------7---7-7-7-7-7-------------|
D|--7---7-7------8---8-8------7-7-7-7-7---7-7------7---7-7-7-7-7-------------|
A|--5---5-5------7---7-7------4-4-0-0-4---0-4------5---5-5-5-5-5-------------|
D|---------------------------------------------------------------------------|


CHORUS: (x2)

e|-------------------------------|-------------------------------------------|
B|-------------------------------|-------------------------------------------|
G|-------------------------------|-------------------------------------------|
D|--5---5-5-5-5-5-0---2---3---7--|--5---5-5-5-5-5-0---2---3---0--------------|
A|--5---5-5-5-5-5-0---2---3---7--|--5---5-5-5-5-5-0---2---3---0--------------|
D|--5---5-5-5-5-5-0---2---3---7--|--5---5-5-5-5-5-0---2---3---0--------------|

e|-------------------------------|-------------------------------------------|
B|-------------------------------|--5---5---5---5---3---3---3---3------------|
G|-------------------------------|--5---5---5---5---3---3---3---3------------|
D|--5---5-5-5-5-5-0---2---3---7--|--5---5---5---5---3---3---3---3------------|
A|--5---5-5-5-5-5-0---2---3---7--|--3---3---3---3---1---1---1---1------------|
D|--5---5-5-5-5-5-0---2---3---7--|-------------------------------------------|


BRIDGE:

PART 1: (x2)

e|--5-5---5-5-5-5-5---5-5-5-5-5-5-5--|--0-0---0-0-0-0-0---0-0-0-0-0-0-0------|
B|--6-6---6-6-6-6-6---6-6-6-6-6-6-6--|--8-8---8-8-8-8-8---8-8-8-8-8-8-8------|
G|--7-7---7-7-7-7-7---7-7-7-7-7-7-7--|--0-0---0-0-0-0-0---0-0-0-0-0-0-0------|
D|--7-7---7-7-7-7-7---7-7-7-7-7-7-7--|--8-8---8-8-8-8-8---8-8-8-8-8-8-8------|
A|--5-5---5-5-5-5-5---5-5-5-5-5-5-5--|--7-7---7-7-7-7-7---7-7-7-7-7-7-7------|
D|-----------------------------------|---------------------------------------|

e|--8--8--8--8--8--8--8--8--8--8--8--8--8--8--8--8---------------------------|
B|--10-10-10-10-10-10-10-10-10-10-10-10-10-10-10-10--------------------------|
G|--10-10-10-10-10-10-10-10-10-10-10-10-10-10-10-10--------------------------|
D|--10-10-10-10-10-10-10-10-10-10-10-10-10-10-10-10--------------------------|
A|--8--8--8--8--8--8--8--8--8--8--8--8--8--8--8--8---------------------------|
D|---------------------------------------------------------------------------|

e|--8--8--8--8--8--8--8--8--8--8--8--8--8--8--8--8---------------------------|
B|--10-10-10-10-10-10-10-10-10-10-10-10-10-10-10-10--------------------------|
G|--9--9--9--9--9--9--9--9--9--9--9--9--9--9--9--9---------------------------|
D|--7--7--7--7--7--7--7--7--7--7--7--7--7--7--7--7---------------------------|
A|--7--7--7--7--7--7--7--7--7--7--7--7--7--7--7--7---------------------------|
D|--7--7--7--7--7--7--7--7--7--7--7--7--7--7--7--7---------------------------|

PART 2:

e|--5-5-5-5-5-5-5-5-5-5-5-5-5-5-5-5--|--0-0-0-0-0-0-0-0-0-0-0-0-0-0-0-0------|
B|--6-6-6-6-6-6-6-6-6-6-6-6-6-6-6-6--|--8-8-8-8-8-8-8-8-8-8-8-8-8-8-8-8------|
G|--7-7-7-7-7-7-7-7-7-7-7-7-7-7-7-7--|--0-0-0-0-0-0-0-0-0-0-0-0-0-0-0-0------|
D|--7-7-7-7-7-7-7-7-7-7-7-7-7-7-7-7--|--8-8-8-8-8-8-8-8-8-8-8-8-8-8-8-8------|
A|--5-5-5-5-5-5-5-5-5-5-5-5-5-5-5-5--|--7-7-7-7-7-7-7-7-7-7-7-7-7-7-7-7------|
D|-----------------------------------|---------------------------------------|

e|--8--8--8--8--8--8--8--8--8--8--8--8--8--8--8--8---------------------------|
B|--10-10-10-10-10-10-10-10-10-10-10-10-10-10-10-10--------------------------|
G|--10-10-10-10-10-10-10-10-10-10-10-10-10-10-10-10--------------------------|
D|--10-10-10-10-10-10-10-10-10-10-10-10-10-10-10-10--------------------------|
A|--8--8--8--8--8--8--8--8--8--8--8--8--8--8--8--8---------------------------|
D|---------------------------------------------------------------------------|

e|--8--8--8--8--8--8--8--8--8--8--8--8--8--8--8--8---------------------------|
B|--10-10-10-10-10-10-10-10-10-10-10-10-10-10-10-10--------------------------|
G|--9--9--9--9--9--9--9--9--9--9--9--9--9--9--9--9---------------------------|
D|--7--7--7--7--7--7--7--7--7--7--7--7--7--7--7--7---------------------------|
A|--7--7--7--7--7--7--7--7--7--7--7--7--7--7--7--7---------------------------|
D|--7--7--7--7--7--7--7--7--7--7--7--7--7--7--7--7---------------------------|


PRE-CHORUS:


e|---------------------------------------------------------------------------|
B|--6---6-6------8---8-8------5-5-5-5-5-5-5-5------6---6-6-------------------|
G|--7---7-7------6---6-6------0-0-0-0-0-0-0-0------7---7-7-------------------|
D|--7---7-7------8---8-8------7-7-7-7-7-7-7-7------7---7-7-------------------|
A|--5---5-5------7---7-7------4-4-0-0-4-4-0-4------5---5-5-------------------|
D|---------------------------------------------------------------------------|


e|---------------------------------------------------------------------------|
B|--6---6-6------8---8-8------5-5-5-5-5---5-5------6---6-6-6-6-6-------------|
G|--7---7-7------6---6-6------0-0-0-0-0---0-0------7---7-7-7-7-7-------------|
D|--7---7-7------8---8-8------7-7-7-7-7---7-7------7---7-7-7-7-7-------------|
A|--5---5-5------7---7-7------4-4-0-0-4---0-4------5---5-5-5-5-5-------------|
D|---------------------------------------------------------------------------|


CHORUS: (x3)

e|-------------------------------|-------------------------------------------|
B|-------------------------------|-------------------------------------------|
G|-------------------------------|-------------------------------------------|
D|--5---5-5-5-5-5-0---2---3---7--|--5---5-5-5-5-5-0---2---3---0--------------|
A|--5---5-5-5-5-5-0---2---3---7--|--5---5-5-5-5-5-0---2---3---0--------------|
D|--5---5-5-5-5-5-0---2---3---7--|--5---5-5-5-5-5-0---2---3---0--------------|

e|-------------------------------|-------------------------------------------|
B|-------------------------------|--5---5---5---5---3---3---3---3------------|
G|-------------------------------|--5---5---5---5---3---3---3---3------------|
D|--5---5-5-5-5-5-0---2---3---7--|--5---5---5---5---3---3---3---3------------|
A|--5---5-5-5-5-5-0---2---3---7--|--3---3---3---3---1---1---1---1------------|
D|--5---5-5-5-5-5-0---2---3---7--|-------------------------------------------|

Then you play this as the 4th time:

e|-------------------------------|-------------------------------------------|
B|-------------------------------|-------------------------------------------|
G|-------------------------------|-------------------------------------------|
D|--5---5-5-5-5-5-0---2---3---7--|--5---5-5-5-5-5-0---2---3---0--------------|
A|--5---5-5-5-5-5-0---2---3---7--|--5---5-5-5-5-5-0---2---3---0--------------|
D|--5---5-5-5-5-5-0---2---3---7--|--5---5-5-5-5-5-0---2---3---0--------------|


e|-------------------------------|-------------------------------------------|
B|-------------------------------|--5---------------3------------------------|
G|-------------------------------|--5---------------3------------------------|
D|--5---5-5-5-5-5-0---2---3---7--|--5---------------3------------------------|
A|--5---5-5-5-5-5-0---2---3---7--|--3---------------1------------------------|
D|--5---5-5-5-5-5-0---2---3---7--|-------------------------------------------|


OUTRO:
                                                                           x2
e|---------------|----------------------|------------------|-----------------|
B|----------6----|--h7/10--------10-----|-----------10-----|-----------10----|
G|-------0-------|-----------0----------|--------0---------|--------0--------|
D|-----7---------|--------10------------|-----10-----------|-----10----------|
A|--5------------|----------------------|--8---------------|--0--------------|
D|---------------|----------------------|------------------|-----------------|


e|--0------------------------------------------------------------------------|
B|--6------------------------------------------------------------------------|
G|--0------------------------------------------------------------------------|
D|--7------------------------------------------------------------------------|
A|--5------------------------------------------------------------------------|
D|---------------------------------------------------------------------------|


I'm not 100% sure everything is correct here, so please correct me if I may be wrong.
Related for Burn The Evidence tab