Song name
# A B C D E F G H I J K L M N O P Q R S T U V W X Y Z

Billy Talent - Where Is The Line tab

This is my first tab submitted pretty much 100% correct here are all the parts to the 
you figure out the order

Tuning: Drop D

INTRO
======
e|---------------------------------|------0-------0-------0-------0--|
B|-------3-------3-------3-------3-|------0-------0-------0-------0--|
G|-----0-------0-------0-------0---|------0-------0-------0-------0--|
D|---4-------4-------4-------4-----|-5-5-----2-2-----5-5-----2-2-----|
A|-2-------4-------5-------0-------|-5-5-----2-2-----5-5-----2-2-----|
D|---------------------------------|-5-5-----2-2-----5-5-----2-2-----|
                                     . .     . .     . .     . .

e|---------------------------------|--5~--2~-------------------------|
B|-------3-------3-------3-------3-|--3~--0~-------------------------|
G|-----0-------0-------0-------0---|--0~--0~-------------------------|
D|---4-------4-------4-------4-----|--4~--2~-------------------------|
A|-2-------4-------5---------------|---------------------------------|
D|-------------------------0-------|---------------------------------|

e|-5---5---5-5-5-5---5-5---5-5-5-5-|-2---2---2-2-2-2---2-2--2-2-2-2--|
B|-7---7---7-7-7-7---7-7---7-7-7-7-|-0---0---0-0-0-0---0-0--0-0-0-0--|
G|-7---7---7-7-7-7---7-7---7-7-7-7-|-0---0---0-0-0-0---0-0--0-0-0-0--|
D|---------------------------------|-2---2---2-2-2-2---2-2--2-2-2-2--|
A|---------------------------------|---------------------------------|
D|---------------------------------|---------------------------------|

e|-0---0---0-0-0-0---0-0---0-0-0-0-|-0-0-0-0-------------------------|
B|-0---0---0-0-0-0---0-0---0-0-0-0-|-2-2-2-2-2b3r2-------------------|
G|-0---0---0-0-0-0---0-0---0-0-0-0-|-2-2-2-2-------------------------|
D|-0---0---0-0-0-0---0-0---0-0-0-0-|-2-2-2-2-------4---4-4-4-4-4-4-4-|
A|-2---2---2-2-2-2---2-2---2-2-2-2-|-0-0-0-0-------4---4-4-4-4-4-4-4-|
D|---------------------------------|---------------4---4-4-4-4-4-4-4-|


VERSE
======
e|-5~~~~~~~~~~~~~-2~~~~~~~~~~~~~~~-|-0~~~~~~~~~~~~~~-0~~~~~~~~~~~~~~-|
B|-7~~~~~~~~~~~~~-0~~~~~~~~~~~~~~~-|-0~~~~~~~~~~~~~~-2~~~~~~~~~~~~~~-|
G|-7~~~~~~~~~~~~~-0~~~~~~~~~~~~~~~-|-0~~~~~~~~~~~~~~-0~~~~~~~~~~~~~~-|
D|----------------2~~~~~~~~~~~~~~~-|-0~~~~~~~~~~~~~~-2~~~~~~~~~~~~~~-|
A|---------------------------------|-2~~~~~~~~~~~~~~-0~~~~~~~~~~~~~~-|
D|---------------------------------|---------------------------------|

e|-5~~~~~~~~~~~~~-2~~~~~~~~~~~~~~~-|-0~~~~~~~~~~~~~~-0-0-0-0-------0-|
B|-7~~~~~~~~~~~~~-0~~~~~~~~~~~~~~~-|-0~~~~~~~~~~~~~~-2-2-2-2-2b3r2-2-|
G|-7~~~~~~~~~~~~~-0~~~~~~~~~~~~~~~-|-0~~~~~~~~~~~~~~-2-2-2-2-------2-|
D|----------------2~~~~~~~~~~~~~~~-|-0~~~~~~~~~~~~~~-2-2-2-2-------2-|
A|---------------------------------|-2~~~~~~~~~~~~~~---------------0-|
D|---------------------------------|---------------------------------|


PRE-CHORUS
===========
e|---------------------------------|---------------------------------|
B|---------------------------------|---------------------------------|
G|---------------------------------|-4-4-4-4-4-4-4-4-4-4-4-4-4-4-4-4-|
D|-2---2-2-2---2---5---5-5-5---5---|-4-4-4-4-4-4-4-4-2-2-2-2-2-2-2-2-|
A|-2---2-2-2---2---5---5-5-5---5---|-2-2-2-2-2-2-2-2-4-4-4-4-4-4-4-4-|
D|-2---2-2-2---2---5---5-5-5---5---|---------------------------------|

e|---------------------------------|---------------------------------|
B|---------------------------------|---------------------------------|
G|---------------------------------|-4-4-4-4-4-4-4-4-2~~~~~~~~~------|
D|-2---2-2-2---2---5---5-5-5---5---|-4-4-4-4-4-4-4-4-2~~~~~~~~~------|
A|-2---2-2-2---2---5---5-5-5---5---|-2-2-2-2-2-2-2-2-0~~~~~~~~~------|
D|-2---2-2-2---2---5---5-5-5---5---|---------------------------------|


BRIDGE (x2)
============
e|---------------------|-----------------|-----------------|------------------|
B|---------------------|-----------------|-----------------|------------------|
G|---------------------|-----------------|---------7---9---|-11--11--11-9p7---|
D|-9-9-9-9-11h12p11----|-2-2-2-2-4h5-4p0-|-5-5-9-5---5---5-|-0---0---0----0---|
A|-9-9-9-9----------12-|-2-2-2-2---------|-5-5---5---5---5-|-0---0---0----0---|
D|-9-9-9-9-------------|-2-2-2-2---------|-5-5---5---5---5-|-0---0---0----0---|

e|---------------------------------|----------------------------------|
B|---------------------------------|----------------------------------|
G|-7-7-7-7-7-7-7-7-4-4-4-4-4-4-4-4-|-9-9-9-9-9h11p9-9-7---7-7-6---6-6-|
D|-5-5-5-5-5-5-5-5-2-2-2-2-2-2-2-2-|-7-7-7-7-7-7--7-7-5---5-5-4---4-4-|
A|-5-5-5-5-5-5-5-5-2-2-2-2-2-2-2-2-|-7-7-7-7-7-7--7-7-5---5-5-4---4-4-|
D|-5-5-5-5-5-5-5-5-2-2-2-2-2-2-2-2-|-7-7-7-7-7-7--7-7-5---5-5-4---4-4-|


OUTRO (x2)
===========
    x16     x16     x16
e|---5---|---2---|-------|-0-0-0-0-------0---0-0-0---------|
B|---7---|---0---|-------|-2-2-2-2-2b3r2-2---2-2-2-2b3r2---|
G|---7---|---0---|---4---|-2-2-2-2-------2---2-2-2---------|
D|-------|---2---|---4---|-2-2-2-2-------2---2-2-2---------|
A|-------|-------|---2---|-0-0-0-0-------0---0-0-0---------|
D|-------|-------|-------|---------------------------------|

e|-----------------------|
B|-----------------------|
G|-----------------------|
D|-0~~~~~~~~~~~~~~~~~~---|
A|-0~~~~~~~~~~~~~~~~~~---|
D|-0~~~~~~~~~~~~~~~~~~---|
Tap to rate this tab
# A B C D E F G H I J K L M N O P Q R S T U V W X Y Z