Song name
# A B C D E F G H I J K L M N O P Q R S T U V W X Y Z

Billy Thorpe And The Aztecs - Most People I Know Think That Im Crazy tab

#----------------------------------PLEASE NOTE--------------------------------#
#This file is the author's own work and represents their interpretation of the#
#song. You may only use this file for private study, scholarship, or research.#
#-----------------------------------------------------------------------------#
#-- File created with Instab - http://www.pconline.com/~smcarey/instab.html --#
#-----------------------------------------------------------------------------#

Author/Artist: Billy Thorpe & The Aztecs
Title: Most People I Know Think That I'm Crazy
p pull off
x sratch note

Standard Tuning

---|------|------x----x---x-----x---x---x---x-----x---x---x---x---x---x-|-----|
---|------|------2----2---2-----3---3---3---2-----2---2---3---3---3---3-|-----|
---|-2----|-0h2--2----2-2-2-----2---2-2-2---2-2---2-2-2---2-2-2---2-2-2-|-----|
---|-2----|-0h2---------2-------------4-------2-----2-------4-------4---|-----|
---|-1----|-----------------0-------------0-------------0-------0-------|-----|
---|-x----|-------------------------------------------------------------|-----|
     A    Intro

---|---x---x---x---x---x---x---x---x-|----------------------------------------|
---|---2---2---2---2---3---3---3---3-|----------------------------------------|
---|---2-2-2---2-2-2---2-2-2---2-2-2-|----------------------------------------|
---|-----2-------2-------4-------4---|----------------------------------------|
---|-0-------0-------0-------0-------|----------------------------------------|
---|---------------------------------|----------------------------------------|
    Preverse

---|---x---x---x---x---x---x---x---x----x-x--x----x----3----3--------------|--|
---|---2---2---2---2---3---3---3---3----3-3--2----2----x----x--------------|--|
---|---2-2-2---2-2-2---2-2-2---2-2-2-2--2-2--2-2--2-2--0----0----1----1----|--|
---|-----2-------2-------4-------4---0---------2----2----0----0--x-x--x-x--|--|
---|-0-------0-------0-------0---------------------------x----x--2-2--2-2--|--|
---|-----------------------------------------------------3----3----0----0--|--|
    Verse

---|------------|--|-------------------|--------------------------------------|
---|------------|--|-------------------|--------------------------------------|
---|-7p5-5-7----|--|-7p5-5-7--7p5-5-7--|--------------------------------------|
---|---------7--|3x|-------------------|--------------------------------------|
---|------------|--|-------------------|--------------------------------------|
---|------------|--|-------------------|--------------------------------------|
     Interlude

---|------------|--|-------------------------------|--------------------------|
---|------------|--|-------------------------------|--------------------------|
---|-7p5-5-7----|--|-7p5-5-7-----7p5-5-7--7p5-5-7--|--------------------------|
---|------------|2x|---------7---------------------|--------------------------|
---|---------0--|--|-------------------------------|--------------------------|
---|------------|--|-------------------------------|--------------------------|


---|----------|--|------|-----------------------------------------------------|
---|----------|--|------|-----------------------------------------------------|
---|----------|--|------|-----------------------------------------------------|
---|-------7--|--|------|-----------------------------------------------------|
---|----------|--|------|-----------------------------------------------------|
---|-5-5-5----|--|------|-----------------------------------------------------|
                   solo
Tap to rate this tab
# A B C D E F G H I J K L M N O P Q R S T U V W X Y Z