Guitaretab - guitar tabs
Song name
# A B C D E F G H I J K L M N O P Q R S T U V W X Y Z

Billy Thorpe - Most People I Know tab

MOST PEOPLE I KNOW (THINK THAT I'M CRAZY) - Billy Thorpe & The Aztecs
Transcribed by Daniel Schaumann 

Tune guitar down  step


INTRO:
					  A      A7sus4   A7add9 
A           A7sus4   A7add9
/  /  /  /  /  /  /  /			xADGBE   xADGBE   xADGBE
					||||||   ||||||   ||||||
A           A7sus4   A7add9		||222|   ||203|   ||200|
/  /  /  /  /  /  /  /			||||||   ||||||   ||||||


A             A7sus4  A              D   A   G   E
Most people I know    think that I'm crazy
    A         A7sus4  A            D   A   G   E
And I know at times I act a little hasty
     A            A7sus4  A              D    A   G   E
But, if that's my way     and you should know it
      A        A7sus4  A          D    A   G   E
Then, in every way     help me to show it


A  A7sus4  A           A7sus4   A7add9
   Oooh    yeah, yeah, yeah


A              A7sus4    A          D   A   G   E
For most of my life I've lived a delusion
     A        A7sus4   A            D   A   G   E
Yes, material gain has caused me confusion
     A         A7sus4    A              D     A   G   E
But, slowly in time I've learnt that my place is
   A               A7sus4   A          N/C
To tell all that I meet the glory that God is


A  A7sus4  A           A7sus4        A7add9
   Oooh    yeah, yeah, and that's why


A             A7sus4  A              D   A   G   E
Most people I know    think that I'm crazy
    A         A7sus4  A            D   A   G   E
And I know at times I act a little hasty
     A            A7sus4  A              D    A   G   E
But, if that's my way     and you should know it
      A        A7sus4  A          D    A   G   E
Then, in every way     help me to show it


INSTRUMENTAL:

  1       2       3       4       1       2       3       4
E|----------------------------------------------------------------|
B|----------------------------------------------------------------|
G|7-p-5---5-----------------------7-p-5---5-----------------------|
D|------7-----7-------7---7-p-5---------7-----7-------7---7-p-5---|
A|------------------------------7-------------------------------7-|
E|----------------------------------------------------------------|

  1       2       3       4       1       2       3       4
E|----------------------------------------------------------------|
B|----------------------------------------------------------------|
G|7-p-5---5-----------------------7-p-5---5-------7-p-5---5-------|
D|------7-----7-------7---7-p-5---------7-----7---------7-----7---|
A|----------------------------------------------------------------|
E|----------------------------------------------------------------|

REPEAT ABOVE TWO BARS, then:
[ Tab from: http://www.guitaretab.com/b/billy-thorpe/28860.html ]
  1       2       3       4       1       2       3       4
E|----------------------------------------------------------------|
B|----------------------------------------------------------------|
G|5---------------------------------------------------------------|
D|----7---------------------------7-----7-7-----7-7-----7-7-----7-|
A|--------------------------------7-----7-7-----7-7-----7-7-----7-|
E|--------------------------------5-----5-5-----5-5-----5-5-----5-|

REPEAT ABOVE BAR x 4 (with slight variations), then:

  1       2       3       4       1       2       3       4
E|----------------------------------------------------------------|
B|----------------------------------------------------------------|
G|7-p-5---5-------------------------------------------------------|
D|------7-----7---let-ring----------------------------------------|
A|----------------------------------------------------------------|
E|----------------------------------------------------------------|

  1       2       3       4       1       2       3       4
E|----------------------------------------------------------------|
B|10p-8---8-------------------------------------------------------|
G|------9-----9-------9---9---let-ring----------------------------|
D|----------------------------------------------------------------|
A|----------------------------------------------------------------|
E|----------------------------------------------------------------|

  1       2       3       4       1       2       3       4
E|10p-8---8-------------------------------------------------------|
B|------10----10------10--10--let-ring----------------------------|
G|----------------------------------------------------------------|
D|----------------------------------------------------------------|
A|----------------------------------------------------------------|
E|----------------------------------------------------------------|

  1       2       3       4       1       2       3       4
E|--------10---let-ring,--slide\--8-------------------------------|
B|----------------------------------------------------------------|

  1       2       3       4       1       2       3       4
E|--------8----let-ring,--slide/--10------------------------------|
B|----------------------------------------------------------------|

REPEAT ABOVE TWO BARS


A  A7sus4  A           A7sus4   A7add9
   Oooh    yeah, yeah, yeah


A             A7sus4  A              D   A   G   E
Most people I know    think that I'm crazy
    A         A7sus4  A            D   A   G   E
And I know at times I act a little hasty
     A            A7sus4  A              D    A   G   E
But, if that's my way     and you should know it
      A        A7sus4  A          D    A   G   E
Then, in every way     help me to show it


INSTRUMENTAL AGAIN, Fade out
Related for Most People I Know tab