Song name
# A B C D E F G H I J K L M N O P Q R S T U V W X Y Z

Billy Williams - Alone tab

-------------------------------------------------------------------------------
			     Alone - Billy Williams
-------------------------------------------------------------------------------
Tabbed by:Me(Billy Williams)
Email:billy360z@hotmail.co.uk

Tuning:(Drop D DADGBE)

e|--------------------------------------------------------------------------|
B|--------------------------------------------------------------------------|
G|--------------------------------------------------------------------------|
D|-5------7-----514-----145-----511------------------(-11111111----7-7-7-7--|
A|-7------5-----512-----127-----79--Repeted x2 then--(-9-9-9-9-----5-5-5-5--|
D|-7------5-----512-----147-----79-------------------(-9-9-9-9-----5-5-5-5--|

e|--------------------------------------------------------------------------|
B|--------------------------------------------------------------------------|
G|--------------------------------------------------------------------------|
D|-14141414----9-9-9-9------------------------------------------------------|
A|-12121212----7-7-7-7-------Repeat the whole lot bout 7 times--------------|
D|-12121212----7-7-7-7------------------------------------------------------|


This Is Not Copy Right I Made This Whilst Jamin With PPL So Dont Steal It Alone By Billy 
Williams  2011
Tap to rate this tab
 
# A B C D E F G H I J K L M N O P Q R S T U V W X Y Z