Song name
# A B C D E F G H I J K L M N O P Q R S T U V W X Y Z

Bilskirnir - Blutgericht tab

"Bilskirnir - Blutgericht" from "Ahnenerbe" EP

Just the 2 of the riffs.
Dunno if it's right.

Riff 1
-------------------------------------------|
-------------------------------------------|
-------------------------------------------|
--------5-5-5-5-2-2-2-2-10-10-10-10--------|
2-2-2-2-3-3-3-3-0-0-0-0-8--8--8--8---------|
0-0-0-0------------------------------------|

Riff 2
-------------------------------------------|
-------------------------------------------|
-------------------------------------------|
7-7-7-7-10-10-10-10-5-5-5-5-7-8-8-8--------|
5-5-5-5-8--8--8--8--3-3-3-3-5-6-6-6--------|
-------------------------------------------|

Pls correct me if its wrong or finish it(lead guitar part first time at 0:14).
Tap to rate this tab
 
# A B C D E F G H I J K L M N O P Q R S T U V W X Y Z