Song name
# A B C D E F G H I J K L M N O P Q R S T U V W X Y Z

Bing Crosby - White Chrismas tab

-------------------------------------------------------------------------------
			     SONG NAME - Band Name
-------------------------------------------------------------------------------
Tabbed by:revanouz_Crow
Email:revanouz@hotmail.com

ok guys this is my first tab using taps hammer ons and pull offs and slides on a classic
song by Bing Crosby just to make it seem fancy and to show of some skill with the
i have n idea how to do the reverse of "/" so it should be the same and it does sound 
better slightly distorted but no idea how it sounds on acoustic if you can play it on
let me know how it sounds.
Tuning: standard with semi distortion

e|---------------------------------------------------------------------------|
B|--5h6p5---4h5h6--7/8-------10h12h13--15Tp13p12----10/8---------------------|
G|---------------------------------------------------------------------------|
D|---------------------------------------------------------------------------|
A|---------------------------------------------------------------------------|
E|---------------------------------------------------------------------------|

e|--------------5h3--------------------------3Tp1p0-----------------5T-------|
B|--1/3/5-5-5--------------------1-1-1---------------6tp5---3p1h3------5t----|
G|---------------------------------------------------------------------------|
D|---------------------------------------------------------------------------|
A|---------------------------------------------------------------------------|
E|---------------------------------------------------------------------------|

e|---------------------------------------------------------------------------|
B|---5h6p5--4h5h6--7/8---------------------10h12h13--15tp13p12--10/8---------|
G|---------------------------------------------------------------------------|
D|---------------------------------------------------------------------------|
A|---------------------------------------------------------------------------|
E|---------------------------------------------------------------------------|

e|---------------5p3--3---8-------------5h3----------------------------------|
B|----1h3-5--5---------------1h3--5-5----------------0----0h1----------------|
G|---------------------------------------------------------------------------|
D|---------------------------------------------------------------------------|
A|---------------------------------------------------------------------------|
E|---------------------------------------------------------------------------|


| /  slide up
| \  slide down
| h  hammer-on
| p  pull-off
| ~  vibrato
| +  harmonic
| x  Mute note
| T  tap
Tap to rate this tab
# A B C D E F G H I J K L M N O P Q R S T U V W X Y Z