Guitaretab - guitar tabs
Song name
# A B C D E F G H I J K L M N O P Q R S T U V W X Y Z

Biohazard - Man With A Promise tab

                              Note is tied here
                            |--------------|
D|---------------|--------|--------|--------|---------------------|------------------------------|
A|---------------|--------|--------|--------|---------------------|------------------------------|
F|---------------|-9------|-9------|-9------|-----------13---12---|-9----7---9---9---7-----------|
C|-----------9---|-9------|-9------|-9------|-10---10---13---12---|-9----7---9---9---7---8---10--|
G|-----------7---|-7------|-7------|-7------|-10---10---11---10---|-7----5---7---7---5---8---10--|
D|---------------|-0------|-0------|-0------|-8----8----11---10---|----------------------6---8---|

[ Tab from: http://www.guitaretab.com/b/biohazard/111620.html ]
D|------------------------------|------------------------------|---------------------------|
A|------------------------------|------------------------------|---------------------------|
F|-13---12--10--10--12--7---10--|-9----7---9---9---7-----------|-13---12--10--10------10---|
C|-13---12--10--10--12--7---10--|-9----7---9---9---7---8---10--|-13---12--10--10------10---|
G|-11---10--8---8---10--5---8---|-7----5---7---7---5---8---10--|-11---10--8---8-------8----|
D|-11---10--8---8---10----------|----------------------6---8---|-11---10--8---8---0---8----|


D|------------------------------|------------------------------|--------|-----------------|
A|------------------------------|------------------------------|--------|-----------------|
F|-9----7---9---9---7-----------|-13---12--10--10--13--7---10--|-9------|-------13---12---|
C|-9----7---9---9---7---8---10--|-13---12--10--10--13--7---10--|-9------|-10----13---12---|
G|-7----5---7---7---5---8---10--|-11---10--8---8---11--5---8---|-7------|-10----11---10---|
D|----------------------6---8---|-11---10--8---8---11----------|-0------|-8-----11---10---|
Related for Man With A Promise tab
Advertisement will be closed in 10 seconds