Song name
# A B C D E F G H I J K L M N O P Q R S T U V W X Y Z

Biohazard - Black & White & Red tab

Date: Tue, 31 Oct 1995 11:41:30
From: oekrem@adh.no (Oyvind Ekrem)


    
   "Black And White And Red All Over"- BIOHAZARD
    From the Album "Urban Discipline"
    Tabbed by:Oyvind Ekrem, oekrem@hia.krs.no

  Intro/Verse
e-|------------------------|---------------------|--
B-|------------------------|---------------------|--
G-|------------------------|---------------------|--
D-|-/9\--2------9-----7-10-|-2------9------------|--
A-|-/7\--2------7-8---5-8--|-2------7-8---5---3--|--
E-|------0--0-0---6--------|-0--0-0---6---3---1--|--


e-|------------------------------------|--
B-|------------------------------------|--
G-|------------------------------------|--
D-|-2------9-----7-10-------------10-10|--
A-|-2------7-8---5-8---8-8---8--8-8--8-|--
E-|-0--0-0---6---------6-6---6--6-8--8-|--

  Chorus                    I                             II
e-|-----------|-----------------------|--|------------------------------|--
B-|-----------|-----------------------|%-|------------------------------|--
G-|-----------|-----------------------|%-|------------------------------|--
D-|-----------|------3---3---3--3-----|%-|--------------3-3-3-----------|--
A-|-----------|------1---1---1--1-----|%-|-7---7-7-5-5--1-1-1--3-3-3-3--|--
E-|-0---------|----0---0---0---0--0---|--|-5---5-5-3-3---------1-1-1-1--|--

Chorus structure:I,II,I,II
Tap to rate this tab
 
# A B C D E F G H I J K L M N O P Q R S T U V W X Y Z