Song name
# A B C D E F G H I J K L M N O P Q R S T U V W X Y Z

Biohazard - Wrong Side Of The Tracks tab

Biohazard (Biohazard and Urban Discipline)

WRONG SIDE OF THE TRACKS   this should be right this is one of my first tabs
and by the way this song kicks major ass!

Notation Key:
. = Palm mute   p = Pull off    / = Slide down
b = Bend        ~ = Vibrato      = Slide up
h = Hammer on  ( )= Ghost note  * = Harmonic

Tune guitar 1 full step down (D G C F A d)

Verse Riff 1
d:|--------------------------|
A:|--------------------------|
F:|--------------------------|
C:|-5555--4-444--5555--4-444-|
G:|-5555--4-444--5555--4-444-|
D:|-3333--2-222--3333--2-222-|

Riff 2
d:|----------------------------|
A:|----------------------------|
F:|----------------------------|
C:|-3/5-55-5/8-88-87-77-7/8----|
G:|-1/3-33-3/6-66-65-55-5/6----|
D:|----------------------------|
        ..     ..     ..

End of Riff 2
d:|--------------------------|
A:|--------------------------|
F:|--------------------------|
C:|-3/5-55-5/8-88-87-77-8----|
G:|-1/3-33-3/6-66-65-55-6----|
D:|--------------------------|
        ..     ..

"...you best watch your back"
d:|-------------------------------------------------|
A:|-------------------------------------------------|
F:|-------------------------------------------------|
C:|-9----7----9----7----------9----7----9----3------|
G:|-7----5----7----5----------7----5----7----1----3-|
D:|---00---00---00---00-5b-3----00---00---00---00-1-|
      ..   ..   ..   ..         ..   ..   ..   ..

"Pick it up Deluxe"
d:|--------------------------------------------|
A:|--------------------------------------------|
F:|--------------------------------------------|
C:|-999-777-999-777------999-777-999----3------|
G:|-777-555-777-555------777-555-777----1----3-|
D:|-----------------5b-3-------------00---00-1-|
                                     ..   ..

Verse Riff 2
d:|------------|
A:|------------|
F:|------------|
C:|-7-7-7-9----|
G:|-5-5-5-7----|
D:|------------|

"Across the tracks..."
d:|-------------------------|
A:|-------------------------|
F:|-------------------------|
C:|-9-99-97-7----------7----|
G:|-7-77-75-5-7-8-88-8-5----|
D:|------------5-6-66-6-----|

Ending Riff
d:|-------------|
A:|-------------|
F:|-------------|
C:|-5-5-55--4-2-|
G:|-5-5-55--4-2-|
D:|-3-3-33--2-0-|
Tap to rate this tab
 
# A B C D E F G H I J K L M N O P Q R S T U V W X Y Z