Song name
# A B C D E F G H I J K L M N O P Q R S T U V W X Y Z

Biohazard - Tales From The Hardside tab

-----------------------------------------------------------------------------
	 Tales from the hardside - Biohazard
-----------------------------------------------------------------------------
Tabbed by: Joel Keane (jk41)
Email:

Tuning: Drop D

Intro
e|--------------------------------------------------------------|
B|--------------------------------------------------------------|
G|--------------------------------------------------------------|
D|--------------------------------------------------------------|
A|--7-7--11-----7-7--11-8-----7-7--11-----7-7--11-8-------------|
D|--7-7--11-----7-7--11-8-----7-7--11-----7-7--11-8-------------|

hardside (verse riff)
e|------------------------------------------------------|
B|------------------------------------------------------|
G|-------------------------------------------------6----|
D|-------------------------------------------------6----|
A|-0-0---4--0-3h4---4-0-3h4---0-0---4--0-3h4---4-0-4----|
D|-0-0-0-4--0-3h4-0-4-0-3h4---0-0-0-4--0-3h4-0-4-0------|
pm     -                          -
e|------------------------------------------------------|
B|------------------------------------------------------|
G|------------------------------------------------------|
D|------------------------------------------------------|
A|-0-0---4--0-3h4---4-0-3h4---0-0-6h7-11---7-8----------|
D|-0-0-0-4--0-3h4-0-4-0-3h4---0-0-6h7-11-0-7-8----------|
      -
let an open D ring in the verses before playing the above riff again
then
e|------------------------------------------------------|
B|------------------------------------------------------|
G|------------------------------------------------------|
D|-----------6-66-6-5-4-------------6-66-6-5-4----------|
A|-4-4--4-3--4-44-4-3-2----4-444-3--4-44-4-3-2----------|
D|-4-4--4-3----------------4-444-3----------------------|

e|------------------------------------------------------|
B|------------------------------------------------------|
G|------------------------------------------------------|
D|-----------6-66-6-5-4---------------------------------|
A|-4-4--4-3--4-44-4-3-2---4--3--1-----------------------|
D|-4-4--4-3---------------4--3--1-----------------------|

cant remember the solo backing will update later

************************************

| /   slide up
| \   slide down
| h   hammer-on
| p   pull-off
| ~   vibrato
| +   harmonic
| x   Mute note
| b   Bend
| pb  Pre-bend
| br  Bend release
| pbr Pre-bend release
| brb Bend release bend

*******************************
Tap to rate this tab
 
# A B C D E F G H I J K L M N O P Q R S T U V W X Y Z