Song name
# A B C D E F G H I J K L M N O P Q R S T U V W X Y Z

Biohazard - Punishment tab

(Guitar Tab for “Punishment”)
(Recorded By “Biohazard”)
(From the Album “Urban Discipline”) 
This tab was mixed between three different tabs that I found and I put them together
Into one tab by finding what was best suited for the riffs. As for the solo I thing 
this should be right I did a lot of splicing tabs together and readjusting where I 
think it needed such as the chorus riff which I had to do since none of them seemed 
quite right. Well anyway this is the Tab I have for it I tried to simplify it for you
so that there’s not a lot of random junk thought out the tab. Enjoy it’s a badass song 
by an brilliant metal power house!   

Gtr I (D G C F A D) - 'Guitar 1’
Gtr II (D G C F A D) - 'N/A'

Q=90
4/4
Intro 
E-----------------|---------------------------|
B-----------------|---------------------------|
G-----------------|---------------------------|
D-------------(2)-|-------------2-3-3-5-6-5-4-|
A-------3---3-(2)-|-------3---3-2-3-3-5-6-5-4-|
e-0-0-0---1---(0)-|-0-0-0---1-----------------|

(Let The Open B,E Strings ring)
E-------------------0-|---------------------------|
B-----------------0---|---------------------------|
G---------------------|---------------------------|
D-------------(2)-----|-------------2-3-3-5-6-5-4-|
A-------3---3-(2)-----|-------3---3-2-3-3-5-6-5-4-|
e-0-0-0---1---(0)-----|-0-0-0---1-----------------|

BPM= 127
E-------------------0-|---------------------------|
B-----------------0---|---------------------------|
G---------------------|---------------------------|
D-------------(2)-----|-------------2-3-3-5-6-5-4-|
A-------3---3-(2)-----|-------3---3-2-3-3-5-6-5-4-|
e-0-0-0---1---(0)-----|-0-0-0---1-----------------|

BPM=184 Verse riff
E--------------------------------------|----------------------------|
B--------------------------------------|----------------------------|
G--------------------------------------|----------------------------|
D-9-----10-----8-----9-----10-10-10-10-|-9-----10-----------2---2-2-|
A-7-----8------6-----7-----8--8--8--8--|-7-----8------------2---2-2-|
e---0-0----0-0---0-0---0-0-------------|---0-0----0-0-0-0-0---0-----|
 
Chorus Riff                 Chorus Riff 2 end
E---------------------------|---------------------------|
B---------------------------|---------------------------|
G---------------------------|---------------------------|
D---------------------------|---------------------------|
A-7----8----6----7----8-8-8-|-7----6----5----4----4-4-4-|
e-5----6----4----5----6-6-6-|-5----4----3----2----2-2-2-|

Solo 
E------------------------------------|-----------------------------------|
B------------------------------------|-----------------------------------|
G-(10)------------(9)-----------9----|-----------------------------------|
D------------------------------------|-----6-7-6h7p6---------------------|
A------------------------------------|-7-8-------------(7)-----7h8p7h8p7-|
e------------------------------------|---------------8-------------------|

E------------------------------------|----13-17-15p13--------------------|
B-12----------12h15p12-15---(15)-----|-15-------------17p15p13h17p15p13--|
G-12------14b------------------------|-----------------------------------|
D----14p0----------------------------|-----------------------------------|
A------------------------------------|-----------------------------------|
e------------------------------------|-----------------------------------|
                         Really Long Held Note
E------------------------------------|
B------------------------------------|
G-16p14p13-14----13------------------|
D-------------------15-(14)~~~~~~----|
A------------------------------------|
e------------------------------------|

Verse riff BPM=184
E-----------------------------|------------------------------|
B-----------------------------|------------------------------|
G-----------------------------|------------------------------|
D-9---9----10---8---9---10-10-|-9--9----10-------------------|
A-7---7----8----6---7---8--8--|-7--7----8--------------------|
e---0----0----0---0---0-------|-------0----0-0-0-0-0-0-0-0-0-|

Chorus Riff (I can’t remember exact order but this should be right)
E-------------------------|------------------|------------------|
B-------------------------|------------------|------------------|
G-------------------------|------------------|------------------|
D-------------------------|------------------|------------------|
A-7----6----3----2----2-2-|-10---9----6----3-|-10--9----6----7--|
e-5----4----1----0----0-0-|-8----7----4----1-|-8---7----4----5--|

End
E-----------------------------------|
B-----------------------------------|
G-----------------------------------|
D-9-----10-----8-----9-----10-10-10-|
A-7-----8------6-----7-----8--8--8--|
e---0-0----0-0---0-0---0-0----------|


Tablature Legend
----------------
 h   - hammer-on
 p   - pull-off
 b   - bend
 pb  - pre-bend
 r   - bend release (if no number after the r, then release immediately)
 /\  - slide into or out of (from/to "nowhere")
 s   - legato slide
 S   - shift slide
  - natural harmonic
[n]  - artificial harmonic
n(n) - tapped harmonic
 ~   - vibrato
 tr  - trill
 T   - tap
 TP  - trem. picking
 PM  - palm muting
\n/  - tremolo bar dip; n = amount to dip
 \n  - tremolo bar down
 n/  - tremolo bar up
/n\  - tremolo bar inverted dip
 =   - hold bend; also acts as connecting device for hammers/pulls
 <>  - volume swell (louder/softer)
 x   - on rhythm slash represents muted slash
 o   - on rhythm slash represents single note slash

Misc Legend
-----------
 |  - bar
||  - double bar
||o - repeat start
o|| - repeat end
*|  - double bar (ending)
 :  - bar (freetime)
 $  - Segno
 &  - Coda
Tempo markers -  = BPM(8/16=s8/s16), where s8 = swing 8ths, s16 = swing 16ths
Tap to rate this tab
# A B C D E F G H I J K L M N O P Q R S T U V W X Y Z