Song name
# A B C D E F G H I J K L M N O P Q R S T U V W X Y Z

Biohazard - Love Denied tab

Help us improve GuitareTab! Take a short survey!
fantastic song!!!

from low to high
   1.----E
   2.----B
   3.----G
   4.----D
   5.----A
   6.----D

FIRST INTRO is played by piano

INTRO (4 times)
--------------------------------------------|
--------------------------------------------|
--------------------------------------------|
----1-----8---7---4----5---2---1------------|
----1-----8---7---4----5---2---1------------|
----1-----8---7---4----5---2---1------------|

CHORUS (4 times)
-----------------------------------------------------------|
-----------------------------------------------------------|
-----------------------------------------------------------|
----1-1-1-1-1---8-8--7-7---4-4-4-4-4---5-5--2-2------------|
----1-1-1-1-1---8-8--7-7---4-4-4-4-4---5-5--2-2------------|
----1-1-1-1-1---8-8--7-7---4-4-4-4-4---5-5--2-2------------|

Verse (2 times)
-----------------------------------------|
-----------------------------------------|
-----------------------------------------|
----1-----3/4------5-5-5---2-2-2---------|
----1-----3/4------5-5-5---2-2-2---------|
----1-----3/4------5-5-5---2-2-2---------|

Chorus (4 times)
Verse  (4 times)
Chorus (4 times)

Bridge (4 times)
-------------------------------------------|
-------------------------------------------|
-------------------------------------------|
----1-2-3--7-8-9--3-4-5--12--5-------------|
----1-2-3--7-8-9--3-4-5--12--5-------------|
----1-2-3--7-8-9--3-4-5--12--5-------------|

Solo...well i try to figure it out =)

Chorus (4 times)
Bridge (4 times)

i think that should be right! if not, tell me!!!!
Have fun and enjoy it ;)
Related for Love Denied tab