Song name
# A B C D E F G H I J K L M N O P Q R S T U V W X Y Z

Biohazard - Hell 25 tab

e------------------------------|
b------------------------------|             This The intro
g------------------------------|
d---3--3--3--3--4--------------|  x8
a---3--3--3--3--4--------------|
e-111111111111112              palm mute=.
  .. .. .. .. ..

e----------------------------------------------------|
b----------------------------------------------------|               This Is The Chorus
g----------------------------------------------------|
d----------3-----------------------------------------|
a---0202---3-----------------------------------------| x3
e-22----22-1---                     e----------------|
                                    b----------------|
                                    g----------------|
                                    d--------33------|
                                    a---0202-33------|
                                    e-22-----11------|
Tap to rate this tab
# A B C D E F G H I J K L M N O P Q R S T U V W X Y Z