Song name
# A B C D E F G H I J K L M N O P Q R S T U V W X Y Z

Biology - Arbitrary Stimulation tab

                     Biology- Arbitrary Stimulation
Tabbed by: newblood02
Email: safekeepeeing@gmail.com

e|-------------------------------------------------|
b|-------4-----------4-----------4-----------4-----|
g|----2-----2-----2-----2-----2-----2-----2-----2--|
d|-------------------------------------------------|
a|--0----------0-----------2-----------2-----------|
e|-------------------------------------------------|



e|-------------------------------------------------|
b|--------4-----------4-----------4-----5-----4~~~~|  This is played 5 or 6 
g|-----2-----2-----2-----2-----2-----2-----2-------|  times
d|-------------------------------------------------|
a|--4-----------4-----------0----------------------|
e|-------------------------------------------------|



e|------------------------------------------------------------------|
b|------------------------------------------------------------------|  X2
g|--2-2-2-2-2-2-2-6-4-4-4-4-4-4-4-4---------------------------------|
d|--2-2-2-2-2-2-2-6-4-4-4-4-4-4-4-4-4-4-4-4-4-4-4-4-4-4-4-4-4-4-4-4-|
a|--0-0-0-0-0-0-0-4-2-2-2-2-2-2-2-2-4-4-4-4-4-4-4-4-4-4-4-4-4-4-4-4-|
e|----------------------------------2-2-2-2-2-2-2-2-2-2-2-2-2-2-2-2-|



e|------------------------------------------------------------------|
b|------------------------------------------------------------------|
g|------------------2-2-2-2-2-2-2-2-----------------4-4-4-4-4-6-4-2-|
d|--4-4-4-4-4-4-4-4-2-2-2-2-2-2-2-2-2-2-2-2-2-2-2-2-4-4-4-4-4-6-4-2-|
a|--4-4-4-4-4-4-4-4-0-0-0-0-0-0-0-0-2-2-2-2-2-2-2-2-2-2-2-2-2-4-2-0-|
e|--2-2-2-2-2-2-2-2-----------------0-0-0-0-0-0-0-0-----------------| X2



e|------------------------------------------2---|
b|------------------------------------------2---|
g|--2-2-2-2-2-2-2-2-4-4-4-4-4-4-4-4---------3---|the last part is just  
d|--2-2-2-2-2-2-2-2-4-4-4-4-4-4-4-4-4-4-----2---|this F#7 barre chord picked
a|--0-0-0-0-0-0-0-0-2-2-2-2-2-2-2-2-4-4-----4---|start at the G string 
e|----------------------------------2-2-----2---|descend through the lower E
                                                 and end with an up stroke
                                                 on the higher e and b string
Tap to rate this tab
# A B C D E F G H I J K L M N O P Q R S T U V W X Y Z