Song name
# A B C D E F G H I J K L M N O P Q R S T U V W X Y Z

Bionic Jive - Break The Chains tab

BAND: BIONIC JIVE
SONG: BREAK THE CHAINS
CD: ARMEGEDON THROUGH YOUR SPEAKER
TUNNING: eBGDAD
TABBED: JAMISON
 (h=hammer on)
 (p=pull off)

Intro/verse (4x)

E---------4-----4----------5-----5-----
B-----2-3---3-2--------3-4---4-3-------
G--------------------------------------
D--------------------------------------
A--4---------------4-------------------
D--------------------------------------

Bridge (4x)

D--4--------2--------5------------x-----------
A--4-(10x)--2-(4x)---5-(4x)-------x-(6x)------
D--4--------2--------5------------x-----------

Chorus

G--------5--------5-----------5-------------
D-4h-5p-4-----2-4-----4h-5p-4------2-4-5-4--
A-4h-5p-4-----2-4-----4h-5p-4------2-4-5-4--
D-4h-5p-4-----2-4-----4h-5p-4------2-4-5-4—-

You can fill in the little parts…Have fun!
Any ?’s e-mail me    realmccoy_111385@hotmail.com
Tap to rate this tab
 
# A B C D E F G H I J K L M N O P Q R S T U V W X Y Z