Song name
# A B C D E F G H I J K L M N O P Q R S T U V W X Y Z

Bipolar - As I Bleed tab

well this is my first tab so cut me some slack... 

hope its right ... please tell me if im wrong

have fun...

   E E E E E E  E E   E  E  E E  SSE E E
D|------------------|---------------------|
A|------------------|---------------------|
F|------------------|---------------------|
C|------------------|---------------------|
G|-----9---9-10-----|-12-10-9-10-----9-10-|
D|-0-0---0------0-0-|------------000------|

   E E Q   Q    E E   Q     Q    E E+Q
D|------------------|---------------------|
A|------------------|---------------------|
F|------------------|---------------------|
C|------------------|---------------------|
G|-----9---9--------|-9-----9----9-10*----|
D|-0-0----------0-0-|---------------------|

E=eight note
S=sixteenth note
*=pinch/artificial harmonic

malakian19

http://www.bipolarmusic.com/
Tap to rate this tab
# A B C D E F G H I J K L M N O P Q R S T U V W X Y Z