Song name
# A B C D E F G H I J K L M N O P Q R S T U V W X Y Z

Birdflesh - Dance On The Frozen Desert tab

This song i quite funny ^^

First part:

Played twice

E|------------------------------------------|
A|------------------------------------------|
D|------------------------------------------|
G|--5-------------------------5--5--7-------|
B|----6--5--6--8--9--8--6--5-----------5--6-|
e|------------------------------------------|

E|------------------------------------------|
A|------------------------------------------|
D|------------------------------------------|
G|--5-------------------------5--5--7-------|
B|----6--5--6--8--9--8--6--5-----------5--6-|
e|------------------------------------------|

E|---------------------------------------------|
A|---------------------------------------------|
D|---------------------------------------------|
G|---------------------------------------------|
B|--5-----------------------------------5---7--|
e|----5--5--5--7--8--8--8--7--5--5--5----------|

Second part:


E|--5--7--------------7--5-------------------|
A|--------4----5--5--------5--5--5--5--5--4--|
D|----------4--------------------------------|
G|-------------------------------------------|
B|-------------------------------------------|
e|-------------------------------------------|

E|--5-----------5-----------5--5--5--7---------|
A|-----7--7--7-----7--7--7--------------4--5---|
D|---------------------------------------------|
G|---------------------------------------------|
B|---------------------------------------------|
e|---------------------------------------------|

E|--5--7--------------7--5-------------------|
A|--------4----5--5--------5--5--5--5--5--4--|
D|----------4--------------------------------|
G|-------------------------------------------|
B|-------------------------------------------|
e|-------------------------------------------|

E|--5-----------5-----------5--5--5--7---------|
A|-----7--7--7-----7--7--7--------------4--5---|
D|---------------------------------------------|
G|---------------------------------------------|
B|---------------------------------------------|
e|---------------------------------------------|

"Im better then you, I'm butcher then you, I'll put you in the grave"

"Tack så mycket"

The site of the band: http://www.birdflesh.net/
Tap to rate this tab
 
# A B C D E F G H I J K L M N O P Q R S T U V W X Y Z